Stone Temple Pilots

Início > Stone Temp... > acordes

Interstate love song Tablatura

Stone Temple Pilots

Dificultad:ExpertoExperto

tuner correct add songbook print version text version salvar en e-mail
acordesukuleletablaturabajobateriaarmónicaflautacavacopiano Guitar Pro
acordes

Interstate love song

	  Introdução: C#m E A9 G# A9 E

e -------------------------------------------0-------      Ex: 4/6 = meia ligadura
b ---------------------------4--4/5--4-------0-------                da casa 4 à 6.
g --4/6---6-4---------------5----------6-----1-------
d ------------6--4/2-2--4-6------------------2-------
a -------------------------------------------2-------
E--------------------------------------------0-------

(Riff Intro)                      |-----> Pequeno Riff*
                                  |
---0---0---0-----------------------x-----x-----X------x----x----x--------
---3---2---0---0-------------------x-----x-----0------x----x----0--------
---------------2----1/2-1----------1-----2-----1------1----2----1--------
-----------------------------------2-----4-----2------2----4----2--------
-----------------------------------2-----0-----2------2----0----2--------
-----------------------------------0-----0-----0------0----0----0--------

C#m	     C(#5)
Waitin' on a sunday
              E6/B
afternoon for what I've read
	    A#m7(b5)
between the lines - Your
A9      E (Pequeno Riff*)
lies

C#m	       C(#5)
Feelin' like a hand in rusted shame.
   E6/B                     A#m7(b5)
So do you laught or does it cry -
  A9      E (Pequeno Riff*)
Reply?

C#m           E
Leavin' on a southern train
      A9	    G#
only yesterday you lied
A9		   E
Promises of what I seemed
	   A9
to be only watched the time
G#
go by
A9                       E
All of these things you said to me

Riff intro (2x)
 
C#m		 C(#5)
Breathing is the hardest thing to do
     E6/B                          A#m5-   
with all I've said and all that's dead for you
     A9 E   A9    E (Pequeno Riff*)
You lied - Goodbye

C#m            E
Leavin' On a southern train
     A		   G#
only yesterday you lied
A		   E
Promises of what I seemed
	   A
to be only watched the time
G#
go by
A                       E
All of these things you said
       E  Riff Intro
to you
	  

No existe una video leccione para esta canción

request
Aumentar uno tonoAumentar uno tono
Aumentar uno semi-tonoAumentar uno semi-tono
Disminuir uno semi-tonoDisminuir uno semi-tono
Disminuir uno tonoDisminuir uno semi-tono
LosAcordes
Buscar
auto avanzar rasgueos aumentar disminuir cambiar color esconder acordes gráficos
losacordes exhibir acordes losacordes youTube video losacordes ocultar tabs losacordes ir hacia arriba losacordes