Stone Temple Pilots

Início > Stone Temp... > acordes

Church on tuesday Tablatura

Stone Temple Pilots

Dificultad:Ningún gradoNingún grado

tuner correct add songbook print version text version salvar en e-mail
acordesukuleletablaturabajobateríaarmónicaflautacavacopiano Guitar Pro
acordes

Church on tuesday

	  |---------2-----2-----2-----2-2-----------2-----2-----2-----2-2---|
|-2/4-4---4-----4-----4-----4-4---2/4-4---4-----4-----4-----4-4---|
|-2---2---2-----2-----2-----2-2---2---2---2-----2-----2-----2-2---|
|-----------------------------------------------------------------|
   H

VERSE

   W
|-0|-|----------------------------2-----2---2-2-----------|
|-0|-|----------------------------2-----2---2-2-----------|
|-6/-\(6)-4---2-------4-----------2-----2---2-2-----------|
|-------------------------2/4-----------------------------|
|-------------------------2-------------------------------|
|---------------------------------------------------------|
                           H
  (let 1st & 2nd ring)    (let 4th & 5th ring)

PRE CHORUS

|-------------------------------------0-----------------------|
|-------------------------------------0-----------------------|
|-----------------------------1-------1-----1---1-1-----------|
|-----------------------------2-------2-----2---2-2-----------|
|-------------0---2---4---5---2-------2-----2---2-2-----------|
|-0---2---3-------------------0-------0-----0---0-0-------0---|

CHORUS

|-----------------------------------------------------------------|
|-----------------------------------------------------------------|
|-1/2-2---2-----2---1-2-----2-2-x-1-2-2---2-----2---1-2-----2-2-1-|
|-0-0-0---0-----0---0-0-----0-0-x-x-x-x---x-----x---x-x-----x-x-x-|
|-------------------------------x-3-3-3---3-----3---3-3-----3-3-3-|
|-----------------------------------------------------------------|

|-----------------------------------------0-----------------------|
|-----------------------------------------0-----------------------|
|-1-2-2---2-----2-2-1-2-----2-2-x-1-------1-----1---1-1---1-------|
|-x-x-x---x-----x-x-x-x-----x-x-x-2-------2-----2---2-2---2-------|
|-2-2-2---2-----2-2-2-2-----2-2-x-2-------2-----2---2-2---2-------|
|---------------------------------0-------0-----0---0-0---0-------|

|-----------------------------------------------------------------|
|-----------------------------------------------------------------|
|-1/2-2---2-----2---1-2-----2-2-x-1-2-2---2-----2---1-2-----2-2-1-|
|-0-0-0---0-----0---0-0-----0-0-x-x-x-x---x-----x---x-x-----x-x-x-|
|-------------------------------x-3-3-3---3-----3---3-3-----3-3-3-|
|-----------------------------------------------------------------|

|-----------------------------------------------------------------|
|-----------------------------------------------------------------|
|-1-2-2---2-----2-2-1-2-----2-2-x---------------------------------|
|-x-x-x---x-----x-x-x-x-----x-x-x-2-------------------------------|
|-2-2-2---2-----2-2-2-2-----2-2-x-x-------------------------------|
|---------------------------------0-------------------------------|
                                  (let ring)

PRE CHORUS VARIATION (third prechorus)

|-----------------------------------------------------------------|
|-----------------------------------------------------------------|
|-----------------------------------------------------------------|
|-----------------------------------------------------2---4---5---|
|-------------0---2---4---5-----------0---2---4---5---------------|
|-0---2---3-------------------3-----------------------------------|
	  

No existe una video leccione para esta canción

request
LosAcordes
Buscar
auto avanzar rasgueos aumentar disminuir cambiar color esconder acordes gráficos
losacordes exhibir acordes losacordes youTube video losacordes ocultar tabs losacordes ir hacia arriba losacordes