Stone Temple Pilots

Início > Stone Temp... > acordes

Big Empty Tablatura

Stone Temple Pilots

Dificultad:Ningún gradoNingún grado

tuner correct add songbook print version text version salvar en e-mail
acordesukuleletablaturabajobateríaarmónicaflautacavacopiano Guitar Pro
acordes

Big Empty

Tono:  G Más
Big Empty Key DD
Big Empty Key D#D#
Big Empty Key EE
Big Empty Key FF(Disminuir uno tono)
Big Empty Key F#F#(Disminuir uno semi-tono)
Big Empty Key GG(tono original)
Big Empty Key G#G#(Aumentar uno semi-tono)
Big Empty Key AA(Aumentar uno tono)
Big Empty Key A#A#
Big Empty Key BB
Big Empty Key CC
Big Empty Key C#C#
	  *****INTRO SOLO*****
e------------------------------3/7-10~~~~-7-10-6~~~\3-3-5-6\5-3--5-3|
B----8~~~7-8-7~~~~\3-3-3~~~~--0-------------------------------------|

e--3/7-10~~~7-10-6~~~~-------|
B----------------------------|
Em7                  C9            Em7
Driving faster in my car
Falling farther from just what we are
Smoke a cigarette and lie some more. These conversations kill
Falling faster in my car
*****Refrão*****
G       F       
Time to take her home
C                               
Her dizzy head is conscience laden
G	F		 C
Time to take a ride that leaves today. No conversation
G	F
Time to take her home
C
Her dizzy head is conscience laden
G	F
Time to wait to long
C
To wait to long, to wait to long (G F Esus4 E)
*****Refrão*****

*****HALF SOLO*****
e---10/12\3-3/6~~~-----3-5-6~~~~3-5-3-3/7-10~~~10/12\10-6~~~\\-3/6-|
B------------------3/5---------------------------------------------|

e--3/5-------|
B-----3/5~~~~|
Em7				    C9		Em7
Too much walkin' shoes worn thin
Too much trippin' and my soul's worn thin
Time to catch a ride that leaves today. Her name is what is means
Too much walkin' shoes worn thin

(((((Refrão)))))

			G F Esus4 E
...Conversation kills... (3 vezes)

|-------------------| |---------------------|
|--------2-3-2------| |--2--2-3-5-3-2-------|
|--------------2----| |---------------2-----|
|-----2----------2--| |2-----------------2--|
|-------------------| |---------------------|
|-------------------| |---------------------|
(3 vezes)	    (1 vezes e volta pra dedilhado anterior 3 vezes)

(((((Refrão)))))

			G F Esus4 E
...Conversation kills... (3 vezes)
	  

No existe una video leccione para esta canción

request
Aumentar uno tonoAumentar uno tono
Aumentar uno semi-tonoAumentar uno semi-tono
Disminuir uno semi-tonoDisminuir uno semi-tono
Disminuir uno tonoDisminuir uno semi-tono
LosAcordes
Buscar
auto avanzar rasgueos aumentar disminuir cambiar color esconder acordes gráficos
losacordes exhibir acordes losacordes youTube video losacordes ocultar tabs losacordes ir hacia arriba losacordes