Stone Temple Pilots

Início > Stone Temp... > acordes

Big Bang Baby Tablatura

Stone Temple Pilots

Dificultad:Ningún gradoNingún grado

sf49erscbw

tuner correct add songbook print version text version salvar en e-mail
acordesukuleletablaturabajobateriaarmónicaflautacavacopiano Guitar Pro
acordes

Big Bang Baby

	  Verse: 
e---------------------------------------------------------------- 
b---------------------------------------------------------------- 
g--------------------------------------------------------------- 
d--------------------------7--6--5--5--4-\-3---------------- 
a---2--2--5--6--7--7--5--4--3--3--2-\-1-5--5--7--9--- 
E--0--0--3--4--5--5-------------------------3--3--5--7---- 


e--------------------------------------------------------------- 
b-------------------------------------------------------------- 
g-------------------------------------------------------------- 
d------------------------7--6--5--5------------------------- 
a--2--2--5--6--7--7--5--4--3--3--9--8--7--7--9-11-- 
E--0--0--3--4--5--5----------------7--6--5--5--7--9---- 


Pre-Chorus: 


e------------------------------------------------------------------------= 
-------- 


b------------------------------------------------------------------------= 
-------- 
g--5--5--5--5--5--5--2--2--2--2--2--2--2--1--1--1--1--1--1--1--1-- 
d--5--5--5--5--5--5--2--2--2--2--2--2--2--2--2--2--2--2--2--2--2-- 
a--3--3--3--3--3--3--0--0--0--0--0--0--0--2--2--2--2--2--2--2--2--etc. 
E--------------------------------------------------0--0--0--0--0--0--0--0= 
-- 


Chorus: 
e---0---0----0----0----0----0----0---0----0---0--R 
b--12--12--12--12--13--13--13--13--13--13--E 
g--13--13--13--13--12--12--12--12--12--12--P 
d--14--14--14--14--14--14--14--14--14--14--E 
a--14--14--14--14--14--14--14--14--14--14--A 
E--0----0----0----0----0---0----0----0----0---0--T 


e------------------------------------------------------------------------= 


b--13--13--13--13--13--13--15--15--15--13--13--13--13-- 
g--14--14--14--14--14--14--14--14--14--14--14--14--14-- 
d--14--14--14--14--14--14--16--16--16--14--14--14--14-- 
a------------------------------------------------------------------------= 
- 
E------------------------------------------------------------------------= 



e------------------------------------------------------------------------= 
---- 
b--12--12--12--12--12--12--12--12--12--12--12--12--12--12 
g--13--13--13--13--13--13--13--13--13--13--13--13--13--13    GRADUAL SLID= 
E 
DOWN 
d--14--14--14--14--14--14--14--14--14--14--14--14--14--14 
a--14--14--14--14--14--14--14--14--14--14--14--14--14--14 
E------------------------------------------------------------------------= 
---- 


LYRICS 
Verses: 
1--I got a picture of a photograph 
Of a wedding and a shell 
It's just a burning aching memory 
I never kiss and tell 


2--So turn it up and burn it 
There's a hole in your head 
There's a hole in your head 
Where the birds can't sing along 


Does anybody know how 
The story really goes 
How the story really goes 
Or do we all just hum along? 


Pre-Chorus-- 
Sell your soul and sign an autograph 
Big bang baby is a crash crash crash 
I wanna cry but I gotta laugh   = 


Orange crush mama is a laugh laugh laugh 


Verses: 
 3(similar to 1st)-- 
Spin me up, spin me spin me out 
Station to station send me up and out 
Is this what life and love is all about? 
I think I think so 


4(similar to 2nd)-- 
We used to see in color 
Now it's only black and white 
Yeah it's only black and white 
'Cause the world is color blind 


Repeat Pre-Chorus 


Chorus-- 
Nothing's for free 
Nothing's for free 
Take it away, boys 
Nothing's for free 
Nothing's for free 
Take it away, boys 


Back to Verse 2 


Back to Pre-Chorus 


Chorus 


Repeat this pattern! 

	  

No existe una video leccione para esta canción

request
Aumentar uno tonoAumentar uno tono
Aumentar uno semi-tonoAumentar uno semi-tono
Disminuir uno semi-tonoDisminuir uno semi-tono
Disminuir uno tonoDisminuir uno semi-tono
LosAcordes
Buscar
auto avanzar rasgueos aumentar disminuir cambiar color esconder acordes gráficos
losacordes exhibir acordes losacordes youTube video losacordes ocultar tabs losacordes ir hacia arriba losacordes