Stone Temple Pilots

Início > Stone Temp... > acordes

About A Fool Tablatura

Stone Temple Pilots

Dificultad:Ningún gradoNingún grado

victborges

tuner correct add songbook print version text version salvar en e-mail
acordesukuleletablaturabajobateríaarmónicaflautacavacopiano Guitar Pro
acordes

About A Fool

	  (intro) 
    A/G               F#m6              D6/F 
E|-----------------|-----------------|-----------------|-------------| 
B|-----------------|-----------------|-0---0---0---0---|-------------| 
G|-2---2---2---2---|-2---2---2---2---|-2---2---2---2---|-2-----------| 
D|-2---2---2---2---|-1---1---1---1---|-0---0---0---0---|-2-----------| 
A|-----------------|-----------------|-----------------|-0-----------| 
E|---3---3---3---3-|---2---2---2---2-|---1---1---1---1-|-------------| 
 | 
 |  
E|---------------12|-----------------|------------------|------------| 
B|--------14\12----|--------14\12--14\---------14\12--14\12/14~------| 
G|-------------14--|-------------14--|-10~----------14--|------------| 
D|-----------------|-----------------|------------------|------------| 
A|-----------------|-----------------|------------------|------------| 
E|-----------------|-----------------|------------------|------------| 

(verso 1 - parte 1) 
   1    2      3     4      1    2      3       4 
E|------------------------|-------------------------| 
B|-5----5--4-----4----4---|-5----5--4-----4-----4---| 
G|-6----6--4-----4----4---|-6----6--4-----4-----4---| 
D|-6----6--4-----4----4---|-6----6--4-----4-----4---| 
A|-0----0--0-----0----0---|-0----0--0-----0-----0---| 
E|------------------------|-------------------------| 
   Amaj7   B/A 
1  "Someone standing        alone on a hill" 
2  "I think you're sinking  can't swim or set still" 

(verso 1 - parte 2) 
    G#m7                         C#9 
E|----------------------------|-4----4----4--4------4-4--| 
B|-4-----4----4--4-------4-4--|-4----4----4--4------4-4--| 
G|-4-----4----4--4-------4-4--|-4----4----4--4------4-4--| 
D|-4-----4----4--4-------4-4--|-3----3----3--3--3---3-3--| 
A|-6-----6----6--6-------6-6--|-4----4----4--4--4---4-4--| 
E|----4-------------4---------|--------------------------| 
  "Still he's waiting   there alone                 He's" 

    F#m  E/G# A    A/C#   C#m     C#sus2          C#dim    
E|---------------------|-0----0----------------|-0----0----------------| 
B|-----------5----5----|-5----5--4--4-4---4-4--|-5----5--4--4-4---4-4--| 
G|-2----4----6----6----|-6----6--6--6-6---6-6--|-6----6--6--6-6---6-6--| 
D|-4----6----7----7----|-6----6--6--6-6---6-6--|-5----5--5--5-5---5-5--| 
A|-4----7----0----4----|-----------------------|-----------------------| 
E|-2----4--------------|-----------------------|-----------------------| 
  "drowning  on   his    own" 

(pré-Refrão) 
    G#maj7        Adim7    Bbm7       Eb9 
E|----------------------|-------6----6--6--6-6----| 
B|----------------------|-------6----6--6--6-6----| 
G|-5----5----------5----|-6--6--6----6--6--6-6----| 
D|-5----5----------4----|-6--6--6----5--5--5-5--x-|  
A|-6----6----------6----|-8--8--8----6--6--6-6--x-| 
E|-4----4----5--5--5----|-6--6--6-----------------| 
1 "The fool who fell in love left his heart right in the sink 
2 "The fool who fell in love let his heart wash down the drain 

    Cm7         F            Bbm7      Eb 
E|-3--3--3-----1----1----|-1----1----6--6--6-6----| 
B|-4--4--4-----1----1----|-2----2----8--8--8-8----| 
G|-3--3--3-----2----2----|-1----1----8--8--8-8----| 
D|-5--5--5---x-3----3----|-3----3----8--8--8-8----| 
A|-3--3--3---x-3----3----|-1----1----6--6--6-6----| 
E|-------------1----1----|------------------------| 
1 "She tore it all to pieces when he left it there" 
2 "She threw away the pieces when he left it there" 

( Bbm7  Eb ) 
"Talkin' to myself 
 Fallin' from the shelf" 

(Refrão 2x) 
    E6 
E|-----------------------|-----------------------|-0----0----0--0--0-0---| 
B|-5----5----5--5--5-5---|-5----5----5--5--5-5---|-5----5----5--5--5-5---| 
G|-6----6----6--6--6-6---|-6----6----6--6--6-6---|-6----6----6--6--6-6---| 
D|-6----6----6--6--6-6---|-6----6----6--6--6-6---|-5----5----5--5--5-5---| 
A|-7----7----7--7--7-7---|-7----7----7--7--7-7---|-----------------------| 
E|-----------------------|-----------------------|-----------------------| 
  "Still   I    wonder     why           I ever   let  myself   take my" 

E|-----------------------| 
B|-5----5----5--5--5-5---| 
G|-6----6----6--6--6-6---| 
D|-7----7----7--7--7-7---| 
A|-0----0----0--0--0-0---| 
E|-----------------------| 
 "own advice" 

(intro) 

(verso 2) 

E|-9--------7------------| 
B|-9--------7------------|  (4x) 
G|-----------------------| 
D|-----------------------| 
A|-----------------------| 
E|-----------------------| 
"Still he's waiting, a man on a hill 
 I think he's drifting, to float on the wind" 

E|-7-----7-------------|-------6-------------| 
B|----7----------------|----6----------------| 
G|----------8----------|-6--------7----------| 
D|---------------------|---------------------| 
A|---------------------|---------------------| 
E|---------------------|---------------------| 
 "Must be a fool to think he could" 

 "Bring him back to her" 

(Refrão) 
E|-11b12r11b12r11b12r11----------| 
B|-------------------------------| 
G|-8-b9-r8-b9-r8-b9-r8-----------| 
D|-------------------------------| 
A|-------------------------------| 
E|-------------------------------| 
   *bend with trem bar if possible 
	  

No existe una video leccione para esta canción

request
Aumentar uno tonoAumentar uno tono
Aumentar uno semi-tonoAumentar uno semi-tono
Disminuir uno semi-tonoDisminuir uno semi-tono
Disminuir uno tonoDisminuir uno semi-tono
LosAcordes
Buscar
auto avanzar rasgueos aumentar disminuir cambiar color esconder acordes gráficos
losacordes exhibir acordes losacordes youTube video losacordes ocultar tabs losacordes ir hacia arriba losacordes