soledad

Início > soledad > acordes

Kilometro 11 Tablatura

soledad

Dificultad:PrincipiantePrincipiante

carlluz

tuner correct add songbook print version text version salvar en e-mail
acordesukuleletablaturabajobateríaarmónicaflautacavacopiano Guitar Pro
acordes

Kilometro 11

	  Bueno pongo esta tab porque no la vi en ningun lado 
      



     -------------0------- 
     --------2-2---------- 
     --2-2-2-------------- 
     -2------------------- 
     --------------------- 
     --------------------- 



     --------------------- 
     -3-2-2--------------- 
     -------4-4-2-2-1----- 
     --------------------- 
     --------------------- 
     --------------------- 





     -------------------------- 
     -------------------------- 
     -1-1-1-2-2-4-2-2-2-1-1--2- 
     -2---------------------4-- 
     -------------------------- 
     -------------------------- 





     ------------------------------- 
     ------------------------------- 
     -------------2-1-1-1----------- 
     -2-2-2-2-4-4---------4-4-2-2-0- 
     ------------------------------- 
     ------------------------------- 




     -------------------- 
     ------------------ 
     -------------1--1----1-1-1-2-- 
     ---0-0-0-2-2-------44------ 
     -2-------------------- 
     --------------------- 


     La mejor parte es esta... 


    Olvida mi bien 

    el enojo aquel 

    que así nuestro amor 

    irá a renacer 

    porque comprendí 

    que no sé vivir sin tu querer. 


    LA PONDRE CUANDO ME LA PIDAN 
	  

No existe una video leccione para esta canción

request
LosAcordes
Buscar
auto avanzar rasgueos aumentar disminuir cambiar color esconder acordes gráficos
losacordes exhibir acordes losacordes youTube video losacordes ocultar tabs losacordes ir hacia arriba losacordes