Soda Stereo

Início > Soda Stere... > acordes

Persiana Americana Tablatura

Soda Stereo

Dificultad:AdelantadoAdelantado

visitendmnovas

tuner correct add songbook print version text version salvar en e-mail
acordesukuleletablaturabaixobateriaarmónicaflautacavacopiano Guitar Pro
acordes

Persiana Americana

	  INTRO: 
1|--------------------------------------------------------------------------9-~--\---| 
2|-----8-7-----------------8-7-----------------8-7--------------------------12~--\---| 
3|-5h7-----7-5---------5h7-----7-5---------5h7-----7-4-------------------------------|  
4|-----------------------------------------------------------------------------------|X2 
5|-----------------------------------------------------------------------------------| 
6|-----------------------------------------------------------------------------------| 
 
VERSOS: 
|-------------------------------------5-7-8-| |----------------------------------5-7-8-| 
|-7--8p7---7---10-----10---8--7-8~----8-8-8-| |-8p7---7---10-----10---8--7-8~----8-8-8-| 
|-7-----------------------------------------| |----------------------------------------| 
|-7------7---9-----------9------------------| |-----7---9-----------9------------------| 
|-------------------------------------------| |----------------------------------------| 
|-------------------------------------------| |----------------------------------------| 
 
Em-C-Em-C-Em-C-D 
TUS ROPAS CAEN... 
 
|----------------------------------| 
|----------------------------------| 
|--4---------4--------4-------4----| 
|----5-----5------------5-------5--|X3 
|-5------5----------5-------5------| 
|----------------------------------| 
 
|------------------------------------5-7-8-| |------------------------------------5-7-8-| 
|-7--8p7---7---10----10---8--7-8~----8-8-8-| |-7--8p7---7---10----10---8--7-8~----8-8-8-| 
|------------------------------------------| |-7----------------------------------------| 
|--------7---9----------9------------------| |-7------7---9----------9------------------| 
|------------------------------------------| |------------------------------------------| 
|------------------------------------------| |------------------------------------------| 
 
Em-C-Em-C-Em-C-D 
 
|----------------------------------| 
|----------------------------------| 
|--4---------4--------4-------4----| 
|----5-----5------------5-------5--|X3 
|-5------5----------5-------5------| 
|----------------------------------| 
 
v se toca para abajo 
^ se toca para arriba 
 
     v ^      v ^ v ^ v ^ 
   |-0-0------3-3-3-3-3-2-------------------------------------------------------------| 
   |-0-0------3-3-3-3-3-3-------------------------------------------------------------| 
 1 |-0-0------2-2-2-2-2-2-------------------------------------------------------------| 
   |-2-2------0-0-0-0-0-0-------------------------------------------------------------| 
   |-2-2------0-0-0-0-0-0-------------------------------------------------------------| 
   |-0-0------0-0-0-0-0-0-------------------------------------------------------------| 
 
OTRA GUITARRA HACE ESTO 
                      T       T       T               T       T       T 
   |------------------12-8p7--12-8p7--12-8p7----------12-8p7--12-8p7--12-8p7----------| 
   |--------------------------------------------------------------------------10/12---| 
 2 |----------------------------------------------------------------------------------| 
   |----------------------------------------------------------------------------------| 
   |----------------------------------------------------------------------------------| 
   |----------------------------------------------------------------------------------| 
 
            v ^      v ^ v ^ v ^ 
   |--------0-0------3-3-3-3-3-2--/---------------------------------------------------| 
   |--------0-0------3-3-3-3-3-3--/---------------------------------------------------| 
 1 |--------0-0------2-2-2-2-2-2------------------------------------------------------| 
   |--------2-2------0-0-0-0-0-0------------------------------------------------------| 
   |--0h2---2-2------0-0-0-0-0-0------------------------------------------------------| 
   |------0-0-0------0-0-0-0-0-0------------------------------------------------------| 
                                                           ^    v  ^  v  ^  
|----------------------------------------------------------8----8--8--8--8-\--------| 
|-----8-7-----------------8-7-----------------8-7----------12---12-12-12-12\--------| 
|-5h7-----7-5---------5h7-----7-5---------5h7-----7-4-------------------------------|  
|-----------------------------------------------------------------------------------|X2 
|-----------------------------------------------------------------------------------| 
|-----------------------------------------------------------------------------------| 
 
"SE REPITEN COSAS ANTERIORES" 
 
OUTRO: 
|-----------------------      AQUI HAY UNAS   ----------------- 
|---8-8-8-8-8---8-------      VARIACIONES     --/10-------7---- 
|--7-7-7-7-7---7--------      QUE LAS PUEDEN  --/9--------7---- 
|----------------------- x2   SACAR CON       ----------------- 
|-----------------------      ARREGLOS        ----------------- 
|-----------------------                      ----------------- 
 
 

	  

No existe una video leccione para esta canción

request
LosAcordes
Buscar
auto avanzar rasgueos aumentar disminuir cambiar color esconder acordes gráficos
losacordes exhibir acordes losacordes youTube video losacordes ocultar tabs losacordes ir hacia arriba losacordes