Sleeping With Sirens

Início > Sleeping W... > acordes

Deja Vu Lead Tablatura

Sleeping With Sirens

Dificultad:Ningún gradoNingún grado

aleffederico

tuner correct add songbook print version text version salvar en e-mail
acordesukuleletablaturabajobateríaarmónicaflautacavacopiano Guitar Pro
acordes

Deja Vu Lead

	  Note: This is only for lead guitar. I'll upload a Rhythm Tab separately. 


Intro: 
D|---------------------------------------------------------------------------------- 
A|---------------------------------------------------------------------------------- 
F|---------------------------------------------------------------------------------- 
c|---------------------------4-----4---------5-----5---------4-----4---------------- 
G|----------10-----10--------------------------------------------------------------- 
C|----7--7------7------0--0-----0-----3--3-----3------5--5-----5-------------------- 

D|---------------------------------------------------------------------------------- 
A|---------------------------------------------------------------------------------- 
F|---------------------------------------------------------------------------------- 
c|---------------------------4-----4---------5-----5---0--0--0---------------------- 
G|----------10-----10----------------------------------0--0--0---------------------- 
C|----7--7------7------0--0-----0-----3--3-----3-------0--0--0---------------------- 

D|------------------------------------------------------------------------------------------------- 
A|------------------------------------------------------------------------------------------------- 
F|-14-14-14-14-14-14-12-12-17-17-17-17-17-17-12-12-17-17-17-17-17-17-12-12-11-11-12-12-14-14-12-12- 
c|--x--x--x--x--x--x--x--x--x--x--x--x--x--x--x--x--x--x--x--x--x--x--x--x--x--x--x--x--x--x--x--x- 
G|-12-12-12-12-12-12-10-10-15-15-15-15-15-15-10-10-15-15-15-15-15-15-10-10--9--9-10-10-12-12-10-10- 
C|------------------------------------------------------------------------------------------------- 

D|------------------------------------------------------------------------------------------------- 
A|------------------------------------------------------------------------------------------------- 
F|-14-14-14-14-14-14-12-12-17-17-17-17-17-17-12-12-17-17-17-17-17-17-12-12-11-11-11-11------------- 
c|--x--x--x--x--x--x--x--x--x--x--x--x--x--x--x--x--x--x--x--x--x--x--x--x--x--x--x--x------------- 
G|-12-12-12-12-12-12-10-10-15-15-15-15-15-15-10-10-15-15-15-15-15-15-10-10--9--9--9--9------------- 
C|------------------------------------------------------------------------------------------------- 



verse 1: 
Palm Muted 
D|---------------------------------------------------------------------------------- 
A|---------------------------------------------------------------------------------- 
F|---------------------------------------------------------------------------------- 
c|-----------------------------4-------4--------5--------5-------4--------4---------   x2 
G|----------10--------10------------------------------------------------------------ 
C|----7--7------7--7------0--0---0--0-----3--3-----3--3----5--5----5--5------------- 

D|------------------------------------------------------------------------------------------------- 
A|------------------------------------------------------------------------------------------------- 
F|-14-14-14-14-14-14-12-12-17-17-17-17-17-17-12-12-17-17-17-17-17-17-12-12-11-11-12-12-14-14-12-12- 
c|--x--x--x--x--x--x--x--x--x--x--x--x--x--x--x--x--x--x--x--x--x--x--x--x--x--x--x--x--x--x--x--x- 
G|-12-12-12-12-12-12-10-10-15-15-15-15-15-15-10-10-15-15-15-15-15-15-10-10--9--9-10-10-12-12-10-10- 
C|------------------------------------------------------------------------------------------------- 

D|------------------------------------------------------------------------------------------------- 
A|------------------------------------------------------------------------------------------------- 
F|-14-14-14-14-14-14-12-12-17-17-17-17-17-17-12-12-17-17-17-17-17-17-12-12-11-11-11-11------------- 
c|--x--x--x--x--x--x--x--x--x--x--x--x--x--x--x--x--x--x--x--x--x--x--x--x--x--x--x--x------------- 
G|-12-12-12-12-12-12-10-10-15-15-15-15-15-15-10-10-15-15-15-15-15-15-10-10--9--9--9--9------------- 
C|------------------------------------------------------------------------------------------------- 



Chorus: 
D|------------------------------------------------------------------------------------------------- 
A|------------------------------------------------------------------------------------------------- 
F|-7-7-7-7-7-7-7-7-7-7-7-7-7-7-7-7-5-5-5-5-5-5-5-5-5-5-5-5-5-5-5-5-7-7-7-7-7-7-7-7-7-7-7-7-7-7-7-7- 
c|-4-4-4-4-4-4-4-4-4-4-4-4-4-4-4-4-x-x-x-x-x-x-x-x-x-x-x-x-x-x-x-x-x-x-x-x-x-x-x-x-x-x-x-x-x-x-x-x- 
G|---------------------------------3-3-3-3-3-3-3-3-3-3-3-3-3-3-3-3-5-5-5-5-5-5-5-5-5-5-5-5-5-5-5-5- 
C|------------------------------------------------------------------------------------------------- 

D|------------------------ 
A|------------------------ 
F|-7-7-7-7--7-7-7-7--7-7-- 
c|-4-4-4-4--4-4-4-4--4-4--     x2 
G|------------------------ 
C|------------------------ 



verse 2 
Palm Muted 
D|---------------------------------------------------------------------------------- 
A|---------------------------------------------------------------------------------- 
F|---------------------------------------------------------------------------------- 
c|-----------------------------4-------4--------5--------5-------4--------4---------   x2 
G|----------10--------10------------------------------------------------------------ 
C|----7--7------7--7------0--0---0--0-----3--3-----3--3----5--5----5--5------------- 

D|------------------------------------------------------------------------------------------------- 
A|------------------------------------------------------------------------------------------------- 
F|-14-14-14-14-14-14-12-12-17-17-17-17-17-17-12-12-17-17-17-17-17-17-12-12-11-11-12-12-14-14-12-12- 
c|--x--x--x--x--x--x--x--x--x--x--x--x--x--x--x--x--x--x--x--x--x--x--x--x--x--x--x--x--x--x--x--x- 
G|-12-12-12-12-12-12-10-10-15-15-15-15-15-15-10-10-15-15-15-15-15-15-10-10--9--9-10-10-12-12-10-10- 
C|------------------------------------------------------------------------------------------------- 

D|------------------------------------------------------------------------------------------------- 
A|------------------------------------------------------------------------------------------------- 
F|-14-14-14-14-14-14-12-12-17-17-17-17-17-17-12-12-17-17-17-17-17-17-12-12-11-11-11-11------------- 
c|--x--x--x--x--x--x--x--x--x--x--x--x--x--x--x--x--x--x--x--x--x--x--x--x--x--x--x--x------------- 
G|-12-12-12-12-12-12-10-10-15-15-15-15-15-15-10-10-15-15-15-15-15-15-10-10--9--9--9--9------------- 
C|------------------------------------------------------------------------------------------------- 



Chorus: 
D|------------------------------------------------------------------------------------------------- 
A|------------------------------------------------------------------------------------------------- 
F|-7-7-7-7-7-7-7-7-7-7-7-7-7-7-7-7-5-5-5-5-5-5-5-5-5-5-5-5-5-5-5-5-7-7-7-7-7-7-7-7-7-7-7-7-7-7-7-7- 
c|-4-4-4-4-4-4-4-4-4-4-4-4-4-4-4-4-x-x-x-x-x-x-x-x-x-x-x-x-x-x-x-x-x-x-x-x-x-x-x-x-x-x-x-x-x-x-x-x- 
G|---------------------------------3-3-3-3-3-3-3-3-3-3-3-3-3-3-3-3-5-5-5-5-5-5-5-5-5-5-5-5-5-5-5-5- 
C|------------------------------------------------------------------------------------------------- 

D|------------------------ 
A|------------------------ 
F|-7-7-7-7--7-7-7-7--7-7-- 
c|-4-4-4-4--4-4-4-4--4-4--     x2 
G|------------------------ 
C|------------------------ 



Bridge: 
D|----------------------------------------------------------------------------------------------------- 
A|----------------------------------------------------------------------------------------------------- 
F|7--7-7--7-7--7--7-7--7-7--5--5-5--5-5--5--5-5--5-5--7--7-7--7-7-7--7-7--7-7--7--7-7--7-7--7--7-7--7-7 
c|4--4-4--4-4--4--4-4--4-4--x--x-x--x-x--x--x-x--x-x--x--x-x--x-x-x--x-x--x-x--4--4-4--4-4--4--4-4--4-4 
G|--------------------------3--3-3--3-3--3--3-3--3-3--5--5-5--5-5-5--5-5--5-5-------------------------- 
C|----------------------------------------------------------------------------------------------------- 

D|-----------------------------------       |----------------------------------------------- 
A|-----------------------------------       |----------------------------------------------- 
F|-7-7-7-7-7-7-7-7-7-7-7-7-7-7-7-7---       |-7--7--7--7--5--------------------------------- 
c|-4-4-4-4-4-4-4-4-4-4-4-4-4-4-4-4--- x3    |-4--4--4--4--x--------------------------------- 
G|-----------------------------------       |-------------3--------------------------------- 
C|-----------------------------------       |----------------------------------------------- 

D|----------------------------------------------- 
A|----------------------------------------------- 
F|-7~-5~-7~--7-7-7-7--7-7-7-7--7-7--------------- 
c|-4~-x~-x~--4-4-4-4--4-4-4-4--4-4--------------- 
G|----3~-5~-------------------------------------- 
C|----------------------------------------------- 



Chorus: 
D|------------------------------------------------------------------------------------------------- 
A|------------------------------------------------------------------------------------------------- 
F|-7-7-7-7-7-7-7-7-7-7-7-7-7-7-7-7-5-5-5-5-5-5-5-5-5-5-5-5-5-5-5-5-7-7-7-7-7-7-7-7-7-7-7-7-7-7-7-7- 
c|-4-4-4-4-4-4-4-4-4-4-4-4-4-4-4-4-x-x-x-x-x-x-x-x-x-x-x-x-x-x-x-x-x-x-x-x-x-x-x-x-x-x-x-x-x-x-x-x- 
G|---------------------------------3-3-3-3-3-3-3-3-3-3-3-3-3-3-3-3-5-5-5-5-5-5-5-5-5-5-5-5-5-5-5-5- 
C|------------------------------------------------------------------------------------------------- 

D|------------------------ 
A|------------------------ 
F|-7-7-7-7--7-7-7-7--7-7-- 
c|-4-4-4-4--4-4-4-4--4-4--     x2 
G|------------------------ 
c|------------------------ 



Outro: 
D|-----------------------------------       |----------------------------------------------- 
A|-----------------------------------       |----------------------------------------------- 
F|-7-7-7-7-7-7-7-7-7-7-7-7-7-7-7-7---       |-7--7--7--7--5--------------------------------- 
c|-4-4-4-4-4-4-4-4-4-4-4-4-4-4-4-4--- x3    |-4--4--4--4--x--------------------------------- 
G|-----------------------------------       |-------------3--------------------------------- 
C|-----------------------------------       |----------------------------------------------- 
	  

No existe una video leccione para esta canción

request
LosAcordes
Buscar
auto avanzar rasgueos aumentar disminuir cambiar color esconder acordes gráficos
losacordes exhibir acordes losacordes youTube video losacordes ocultar tabs losacordes ir hacia arriba losacordes