Simply Red

Início > Simply Red > acordes

For yours babies Tablatura

Simply Red

Dificultad:IntermedioIntermedio

tuner correct add songbook print version text version salvar en e-mail
acordesukuleletablaturabajobateríaarmónicaflautacavacopiano Guitar Pro
acordes

For yours babies

	  Simbols:
p pull off
h Hammer on
s slide
/ a bigger slide
~ vibrate string 
 
INTRO:
 
  A             E/G#         F#m            D
e|--------------------------------5--------------------------|
B|---------------------------------------5h6p5---------------|
G|---9--9-------7s9--9----6h7p6-7--------------7----4--6-----|
D|-----------------------------------------------7-----------|
A|-----------------------------------------------------------|
E|-----------------------------------------------------------|
 
A                 E/G#
 you've got that look again
     F#m                D
 the one I hoped I had when I was a lad
A                  E/G#
 your face is just beaming
       F#m                       D 
 your smile got me boasting, my pulse roller-coastering
A             E/G#
 any way the four winds that blow
F#m                  D 
 they gonna send me sailing home to you
A                     E/G#
 or I'll fly with the force of a rainbow
F#m                         D               A
 the dream of gold will be waiting in your eyes
      A                 F#m          D    
 you know I'd do almost anything you want  hey,     
A                  F#m            D
 I try to give you everything you need
       Dm
 I can see that it gets to you
A                   F#m
 I don't believe in many things
        D     Dm     A
 but in you        I do
 
So the music goes like this:
 
  A             E/G#         F#m            D
e|--------------------------------5----------------------5---|
B|---------------------------------------5h6p5---------------|
G|---9--9-------7s9--9----6h7p6-7--------------7-------------|
D|-----------------------------------------------7-----------|
A|-----------------------------------------------------------|
E|-----------------------------------------------------------|
 
A              E/G#
 her faith is amazing
     F#m                         D
 the pain that she goes through contained in the hope for you
A                     E/G#
 your whole world has changed
     F#m                           D
 the years spent before seem more cloudy than blue
A                  E/G#
 in many ways your baby's controlling
F#m                    D
 when you haven't laid down for days
A                E/G#
 for the poor no time to be thinking
F#m               D                  A
 they're too busy finding ways   and I
    A                 F#m           D       A
 I know I'd do almost anything you want hey I
A                F#m            D
 try to give you everything you need
e|------------------------------------------|
B|------------------------------------------|
G|------------------------------------8-6-4-|
D|----------------------------------7-------|
A|------------------------------------------|
E|------------------------------------------|
 
      Dm
 I'll see that it gets to you  
A                  F#m
 I don't belive in many things
        D   Dm    A
 but in you     I do 
 
Then the SOLO:
 
  A              E/G#              F#m         D             A
e|-----------------------------8s9-9---------------------------------|
B|-----------/14-12-----10-12------------------5h6p5-------5---------|
G|---------9-------------------------9--------7------7---4---4s6-6---|
D|-----------------------------------------------------7-------------|
A|-------------------------------------------------------------------|
E|-------------------------------------------------------------------|
 
     F#m                 D                Dm                 A
e|---8s9----------/12-12----------10s12-10----5s7-5------------------|
B|------12p10-12---------10~~~~------------------------2s3--2--------|
G|--------------------------------10s12-10----5s7-5------------------|
D|-----------------------------------------------------2s3--2--------|
A|-------------------------------------------------------------------|
E|-------------------------------------------------------------------|
                            hey      I
 
A                       F#m          D              A
 you know I'd do almost anything you want every day I
A                F#m            D
 I try to give you everything you need
e|------------------------------------------|
B|------------------------------------------|
G|------------------------------------8-6-4-|
D|----------------------------------7-------|
A|------------------------------------------|
E|------------------------------------------|
      Dm
 I'll always be there for you 
A                  F#m
 I don't belive in many things
        D          Dm
 but in you        
e|---------------------------------|
B|---------------------------------|
G|-----------8-6-4----7-6-4--------|
D|---------7--------7---------2h3p2|
A|---------------------------------|
E|---------------------------------|
 
A                  F#m
 I don't belive in many things
        D           Dm 
 but in you
e|---------------------------------------|
B|---------------------5h6p5-------------|
G|-----------8-6-4---7-------7--4-4s6----|
D|---------7------------------7----------|
A|---------------------------------------|
E|---------------------------------------|
 
A                  F#m
 I don't belive in many things
     D    Dm
 but you
e|--------------|
B|--------------|
G|--------8-6-4-|
D|------7-------|
A|--------------|
E|--------------|
                     
           I do
e|---------------------5-|
B|-------------------5---|
G|-----------------------|
D|--0--------------7-----|
A|---------------7-------|
E|-------------5---------|

 
PS: The base of the music is played at the piano, but it is cool if played on the guitar.
	  

No existe una video leccione para esta canción

request
Aumentar uno tonoAumentar uno tono
Aumentar uno semi-tonoAumentar uno semi-tono
Disminuir uno semi-tonoDisminuir uno semi-tono
Disminuir uno tonoDisminuir uno semi-tono
LosAcordes
Buscar
auto avanzar rasgueos aumentar disminuir cambiar color esconder acordes gráficos
losacordes exhibir acordes losacordes youTube video losacordes ocultar tabs losacordes ir hacia arriba losacordes