Sílvia Pérez Cruz

Início > Sílvia Pér... > acordes

Acabou Chorare Tablatura

Sílvia Pérez Cruz

Dificultad:Ningún gradoNingún grado

tamamoreira

tuner correct add songbook print version text version salvar en e-mail
acordesukuleletablaturabajobateríaarmónicaflautacavacopiano Guitar Pro
acordes

Acabou Chorare

	  

                              x6                             x3   
||---------------------------------|||-------------------------||-----------------------------| 
||---5--5----5--5----5--5----3--3--|||-------5----5----5----3--||-------3---/6--5--3-------5--| 
|*---6--6----4--4----4--4----2--2--*|*-------6----4----4----2--*|--------------------------4--| 
|*-7-------6-------5-------4-------*|*-------7----6----5----4--*|-----3-----------------------| 
||---------------------------------|||-------------------------||-----------------------------| 
||---------------------------------|||--0--5----4----3----2----||-1------------------<12>-----|  

|------------------|------------------|------------------|------------------| 
|-----7--10--9--7--|-----5------------|-----7--10--9--7--|-----5------------| 
|---7--------------|---6---6-------9--|---7--------------|---6---6-------9--| 
|-9----------------|-7--------7--8----|-9----------------|-7--------7--8----| 
|------------------|------------------|------------------|------------------| 
|------------------|------------------|------------------|------------------| 

|----2-------2-------0---------|----2-------2-------0---------| 
|----3-------3-------2------2--|----3-------3-------2------2--| 
|----4-------4-------2------2--|----4-------4-------2------2--| 
|-------0--2-------------------|-------0--2-------------------| 
|-2---------------0-----0-1----|-2---------------0-----0-1----| 
|------------------------------|------------------------------|     

|------------------|------------------|------------------|------------------| 
|-----7--10--9--7--|-----5------------|-----7--10--9--7--|-----5------------| 
|---7--------------|---6---6-------9--|---7--------------|---6---6-------9--| 
|-9----------------|-7--------7--8----|-9----------------|-7--------7--8----| 
|------------------|------------------|------------------|------------------| 
|------------------|------------------|------------------|------------------| 

|----2-------2------0-----------|-----2-------2------------------------------| 
|----3-------3------2------2----|-----3-------3------------------------------| 
|----4-------4------2------2----|-----4-------4------------------------------| 
|-------0--2--------------------|--------0--2------7---7---6---6---5---5--4--| 
|-2--------------0-----0-1------|--2-----------------------------------------| 
|-------------------------------|----------------5-------4-------3--------2--| 
                                x4     
||--------------------------------|||-------------------------||-----------------------------| 
||---5--5----5--5----5--5----3--3-|||-------5----5----5----3--||-------3---/6--5--3-------5--| 
|*---6--6----4--4----4--4----2--2-*|*-------6----4----4----2--*|-----------------------------| 
|*-7-------6-------5-------4------*|*-------7----6----5----4--*|-----3-----------------------| 
||--------------------------------|||-------------------------||-----------------------------| 
||--------------------------------|||--0--5----4----3----2----||-1------------------<12>-----| 

||--------------------------------|||--------------------------------||--------------------------------| 
||--------------------------------|||-7--7---------------------------||--------------------------------| 
|*-7--7-----7---6--------------6--*|*-7--7-----7---6--------------6--*|-7--7-----7---6--------------6--| 
|*-7--7-----7---7------7-------7--*|*-7--7-----7---7------7-------7--*|-7--7-----7---7------7-------7--| 
||-------------------7------------|||-------------------7------------||-------------------7------------| 
||-------7------------------6-----|||-------7------------------6-----||-------7------------------6-----| 

|------------------|------------------|--------------------------------| 
|-----7--10--9--7--|-----5------------|--------------------------------| 
|---7--------------|---6---6-------9--|-7--7-----7---6--------------6--| 
|-9----------------|-7--------7--8----|-7--7-----7---7------7-------7--| 
|------------------|------------------|-------------------7------------| 
|------------------|------------------|-------7------------------6-----| 
                                                                                           x5 
|------------------|-----------------------------||-------------------------------------|| 
|-----7--10--9--7--|---5--5----5------5------3---||----10--10------9-9-----8--8----7-7--|| 
|---7--------------|---6--6----4------4------2---|*----9---9-------9-9-----7--7----7-7--*| 
|-9----------------|-7-------6------5------4-----|*-11----------9-------9--------9------*| 
|------------------|-----------------------------||-------------------------------------|| 
|------------------|-----------------------------||-------------------------------------|| 
                             x4 
||-----------------------------||-------------------------|------------------------------| 
||---5--5----5--5---5--5---3---||----5-----5-----5-----3--|------------------------------| 
|*---6--6----4--4---4--4---2---*|----6-----4-----4-----2--|------------------------------| 
|*-7-------6------5------4-----*|-7-----6-----5-----4-----|------<7>---------------------| 
||-----------------------------||-------------------------|------------------------------| 
||-----------------------------||-------------------------|--5---------------------------| 
	  

No existe una video leccione para esta canción

request
LosAcordes
Buscar
auto avanzar rasgueos aumentar disminuir cambiar color esconder acordes gráficos
losacordes exhibir acordes losacordes youTube video losacordes ocultar tabs losacordes ir hacia arriba losacordes