Silverchair

Início > Silverchai... > acordes

Tomorrow Tablatura

Silverchair

Dificultad:ExpertoExperto

Zacarias

tuner correct add songbook print version text version salvar en e-mail
acordesukuleletablaturabajobateriaarmónicaflautacavacopiano Guitar Pro
acordes

Tomorrow

Tono:  A Más
Tomorrow Key EE
Tomorrow Key FF
Tomorrow Key F#F#
Tomorrow Key GG(Disminuir uno tono)
Tomorrow Key G#G#(Disminuir uno semi-tono)
Tomorrow Key AA(tono original)
Tomorrow Key A#A#(Aumentar uno semi-tono)
Tomorrow Key BB(Aumentar uno tono)
Tomorrow Key CC
Tomorrow Key C#C#
Tomorrow Key DD
Tomorrow Key D#D#
	  Tomorrow by Silverchair 
tabbed by Christiano Poletto 
 This is a great song of the frogstomp album.  The other tabs where way off 
so i decided to post an accurate version of the song. 
normal tunning 
 Intro 
   A                              D                    
e---------0--------------0--------------3-2--------------------------- 
    b-----------2--------------2----------------3------------------------- 
    g---------------2--------------0----2---------2--------0-----0-------- 
    d----2--------2----2--2------2----0---0---------0----0-----0------0--- 
    a--0---0-----------0----0--------------------------3-----2------------ 
    E--------------------------------------------------------------3------ 
> > 
>  1st verse 
> I didn't include strumming pattern, but it isn't hard to figure out. 
gtr. 1 electric with a little bit of dist. 
           A          G        D                     
e----------0----------3--------2----------------------/ 
b----------2----------3--------3----------------------/ 
g----------2----------0--------2----------------------/ 
d----------2----------0--------0----------------------/ 
a----------0----------2--------0-----3---0----------/ 
E---------------------3-------------------------3-----/ 
gtr 2 mucho distortion 
                 
e---------------------------------------------- 
b-------2-----4-----5-------------------------- 
g-------2-----4-----5---------------------5---- 
d-------2-----4-----5-------------5---7------5- 
a-------0-----2-----3-------5---7-------------- 
>   E-------------2-----3-----------------------------/ 
gtr. 1 clean electric 
    e---5--5----10--12--10--------------8--8---10--12--10------------- 
    b---5--5----10---------10-12-10-----8--8---10---------10-12-10---- 
    g---6--6----11------------------11--9--9---12------------------11- 
    d----------------------------------------------------------------- 
    a----------------------------------------------------------------- 
    E----------------------------------------------------------------- 
 Chorus 
gtr. 2 DISTORTION 
> > 
>   e---------------------------------------------------------------------       
>   b-------2------------------------2------------------------------------ 
g-------2-------7----5-----7-----2---7---5-5-5-5---7-7-7-7--7-7------- 
d-------2-------7----5-----7-----2---7---5-5-5-5---7-7-7-7--7-7------- 
a-------0-------5----3-----5-----0---5---3-3-3-3---5-5-5-5--5-5------- 
E---------------5----3-----5---------5---3-3-3-3---5-5-5-5--5-5------- 
 

	  

No existe una video leccione para esta canción

request
Aumentar uno tonoAumentar uno tono
Aumentar uno semi-tonoAumentar uno semi-tono
Disminuir uno semi-tonoDisminuir uno semi-tono
Disminuir uno tonoDisminuir uno semi-tono
LosAcordes
Buscar
auto avanzar rasgueos aumentar disminuir cambiar color esconder acordes gráficos
losacordes exhibir acordes losacordes youTube video losacordes ocultar tabs losacordes ir hacia arriba losacordes