Silverchair

Início > Silverchai... > acordes

Straight Lines Tablatura

Silverchair

Dificultad:FácilFácil

LikeNoOther

tuner correct add songbook print version text version salvar en e-mail
acordesukuleletablaturabajobateríaarmónicaflautacavacopiano Guitar Pro
acordes

Straight Lines

	  Intro: 

|----------------------------------------------------| 
|----------------------------------------------------| 
|----------------------------------------------------| 
|----------------------------------------------------| 
|-----0---0---0---0------0---0---0---0---------------| 
|-3~5---5---5---5---5-3~5--5---5---5---5-------------| 

Verso: 


|-------------------------------------------------------------------------------| 
|-------------------------------------------------------------------------------| 
|-------------------------------------------------------------------------------| 
|-------------------------------------------------------------------------------| 
|-----0---0---0---0---0---------0---0---0---0---0--0--0--0-----0---0---0---0----| 
|-3~5---5---5---5---5---5-3~5--5---5---5---5---3--3--3--3---3~5---5---5---5-----| 

|---------------------------------------------------------------------------------| 
|---------------------------------------------------------------------------------| 
|---------------------------------------------------------------------------------| 
|---------------------------------------------------------------------------------| 
|-----0---0---0---0---------0---0---0---0---0--0--0--0----0---0---0---0-----------| 
|-3~5---5---5---5---3~5--5---5---5---5---3--3--3--3---7---7---7---7---------------| 

|-------------------------------------------------------------------| 
|-------------------------------------------------------------------| 
|-------------------------------------------------------------------| 
|-------------------------------------------------------------------| 
|---0---0---0---0---0---0--0---0----0--0--0--0----9----9----9----9--| 
|-2---2---2---2---2---2--2---2---2~3-3--3---3--10---10---10---10----| 

Chorus 1: 

|--------------------------------------------------| 
|--------------------------------------------------| P.M.{Abafado} 
|--------------------------------------------------| 
|--------------------------------------------------| 
|--------------------------------------------------| 
|5555555-9999-8888-7777--2222222-12121212-10101010-| 

Verso 2: 

A,G,A 
A,G,D   --- Acompanhando o riff do verso 1. 
F#m,G,D 

Chorus 2: 

A,D#,C,B 
F#m,E,D 

Interlude: 

|0-7-0-7-0-0-------------------------------------------| 
|5-7-5-7-5-0-------------------------------------------| 
|6-7-6-7-6-7-------------------------------------------| 
|7-7-7-7-7-7-------------------------------------------| 
|0-9-0-9-0-5-------------------------------------------| 
|------------------------------------------------------| 
	  

No existe una video leccione para esta canción

request
Aumentar uno tonoAumentar uno tono
Aumentar uno semi-tonoAumentar uno semi-tono
Disminuir uno semi-tonoDisminuir uno semi-tono
Disminuir uno tonoDisminuir uno semi-tono
LosAcordes
Buscar
auto avanzar rasgueos aumentar disminuir cambiar color esconder acordes gráficos
losacordes exhibir acordes losacordes youTube video losacordes ocultar tabs losacordes ir hacia arriba losacordes