Silverchair

Início > Silverchai... > acordes

Punk Song #2 Tablatura

Silverchair

Dificultad:Ningún gradoNingún grado

naninha_regis

tuner correct add songbook print version text version salvar en e-mail
acordesukuleletablaturabajobateríaarmónicaflautacavacopiano Guitar Pro
acordes

Punk Song #2

	  INTRO 
Dink..Dink..Dink 
 
--------------------------| 
--------------------------| 
----------------5-5-5-5-5-| 
----------------5-5-5-5-5-| 
-0--5-4--0------3-3-3-3-3-| 
-----------3-0------------| 
 
----------------------------| 
----------------------------| 
------------------5-5-5-5-5-| 
------------------5-5-5-5-5-| 
-0-0--5-4--0------3-3-3-3-3-| 
-------------3-0------------| 
 
-------------| 
-x--x--x--x--| 
-x--x--x--x--|   
-x--x--x--x--|   
-x--x--x--x--| 
-------------| 
 
 
VERSE 
(between chords daniel does random palm mutes to keep 
the rhythm...this is natural for most guitarists...) 
----------------------------------------------------------| 
----------------------------------------------------------| 
-2--2--2-2----4--4-4--4-4----x--7--7--7-7-----9--9-9--9-9-| 
-2--2--2-2--0-4--4-4--4-4--0-x--7--7--7-7-x-0-9--9-9--9-9-| 
-0--0--0-0--0-2--2-2--2-2--0-x--5--5--5-5-x-0-7--7-7--7-7-| 
----------------------------------------------------------| 
 
----------------------------------------------------------| 
----------------------------------------------------------| 
-2--2--2-2----4--4-4--4-4----x--7--7--7-7-----9--9-9--9-9-| 
-2--2--2-2--0-4--4-4--4-4--0-x--7--7--7-7-x-0-9--9-9--9-9-| 
-0--0--0-0--0-2--2-2--2-2--0-x--5--5--5-5-x-0-7--7-7--7-7-| 
----------------------------------------------------------| 
 
 
----------------------------------------------------------| 
----------------------------------------------------------| 
-2--2--2-2----4--4-4--4-4----x--7--7--7-7-----9--9-9--9-9-| 
-2--2--2-2--0-4--4-4--4-4--0-x--7--7--7-7-x-0-9--9-9--9-9-| 
-0--0--0-0--0-2--2-2--2-2--0-x--5--5--5-5-x-0-7--7-7--7-7-| 
----------------------------------------------------------| 
 
 
----------------------------------------------------------| 
----------------------------------------------------------| 
-2--2--2-2----4--4-4--4-4----x--7--7--7-7-----9--9-9--9-9-| 
-2--2--2-2--0-4--4-4--4-4--0-x--7--7--7-7-x-0-9--9-9--9-9-| 
-0--0--0-0--0-2--2-2--2-2--0-x--5--5--5-5-x-0-7--7-7--7-7-| 
----------------------------------------------------------| 
 
 
----------------------------------------------------------| 
----------------------------------------------------------| 
-2--2--2-2----4--4-4--4-4----x--7--7--7-7-----9--9-9--9-9-| 
-2--2--2-2--0-4--4-4--4-4--0-x--7--7--7-7-x-0-9--9-9--9-9-| 
-0--0--0-0--0-2--2-2--2-2--0-x--5--5--5-5-x-0-7--7-7--7-7-| 
----------------------------------------------------------| 
 
CHORUS 
 
-----------------------| 
-----------------------| 
-2--2--2-2----9-8-7--5-| 
-2--2--2-2--0-9-8-7--5-| 
-0--0--0-0--0-7-6-5--3-| 
-----------------------| 
 
-----------------------| 
-----------------------| 
-2--2--2-2----9-8-7--5-| 
-2--2--2-2--0-9-8-7--5-| 
-0--0--0-0--0-7-6-5--3-| 
-----------------------| 
 
-----------------------| 
-----------------------| 
-2--2--2-2----9-8-7--5-| 
-2--2--2-2--0-9-8-7--5-| 
-0--0--0-0--0-7-6-5--3-| 
-----------------------| 
 
 
-----------------------| 
-----------------------| 
-2--2--2-2----9-8-7--5-| 
-2--2--2-2--0-9-8-7--5-| 
-0--0--0-0--0-7-6-5--3-| 
-----------------------| 
 
 
VERSE 
 
CHORUS (play 2 times) 
 
BRIDGE 
 
--------------------------------------------------------| 
--------------------------------------------------------| 
-4--4--4-4----------------------------------7--7-7--7-7-| 
-4--4--4-4-0--5--5-5--5-5-----/8--8--8-8-0--7--7-7--7-7-| 
-2--2--2-2-0--5--5-5--5-5-0-0-/8--8--8-8-0--5--5-5--5-5-| 
--------------3--3-3--3-3-0-0-/6--6--6-6----------------| 
 
--------------------------------------------------------| 
--------------------------------------------------------| 
-4--4--4-4----------------------------------7--7-7--7-7-| 
-4--4--4-4-0--5--5-5--5-5-----/8--8--8-8-0--7--7-7--7-7-| 
-2--2--2-2-0--5--5-5--5-5-0-0-/8--8--8-8-0--5--5-5--5-5-| 
--------------3--3-3--3-3-0-0-/6--6--6-6----------------| 
 
--------------------------------------------------------| 
--------------------------------------------------------| 
-4--4--4-4----------------------------------7--7-7--7-7-| 
-4--4--4-4-0--5--5-5--5-5-----/8--8--8-8-0--7--7-7--7-7-| 
-2--2--2-2-0--5--5-5--5-5-0-0-/8--8--8-8-0--5--5-5--5-5-| 
--------------3--3-3--3-3-0-0-/6--6--6-6----------------| 
 
 
--------------------------------------------------------| 
--------------------------------------------------------| 
-4--4--4-4----------------------------------7--7-7--7-7-| 
-4--4--4-4-0--5--5-5--5-5-----/8--8--8-8-0--7--7-7--7-7-| 
-2--2--2-2-0--5--5-5--5-5-0-0-/8--8--8-8-0--5--5-5--5-5-| 
--------------3--3-3--3-3-0-0-/6--6--6-6----------------| 
 
INTERLUDE 
----------------------------| 
----------------------------| 
------------------5-5-5-5-5-| 
------------------5-5-5-5-5-| 
-0-0--5-4--0------3-3-3-3-3-| 
-------------3-0------------| 
 
----------------------------| 
----------------------------| 
------------------5-5-5-5-5-| 
------------------5-5-5-5-5-| 
-0-0--5-4--0------3-3-3-3-3-| 
-------------3-0------------| 
 
 
----------------------------| 
----------------------------| 
------------------5-5-5-5-5-| 
------------------5-5-5-5-5-| 
-0-0--5-4--0------3-3-3-3-3-| 
-------------3-0------------| 
 
 
----------------------------| 
----------------------------| 
------------------5-5-5-5-5-| 
------------------5-5-5-5-5-| 
-0-0--5-4--0------3-3-3-3-3-| 
-------------3-0------------| 
 
 
---------------------------| 
---------------------------| 
-2-2--7-6-2------5-5-5-5-5-| 
-2-2--7-6-2-5-2--5-5-5-5-5-| 
-0-0--5-4-0-5-2--3-3-3-3-3-| 
------------3-0------------| 
 
---------------------------| 
---------------------------| 
-2-2--7-6-2------5-5-5-5-5-| 
-2-2--7-6-2-5-2--5-5-5-5-5-| 
-0-0--5-4-0-5-2--3-3-3-3-3-| 
------------3-0------------| 
 
 
---------------------------| 
---------------------------| 
-2-2--7-6-2------5-5-5-5-5-| 
-2-2--7-6-2-5-2--5-5-5-5-5-| 
-0-0--5-4-0-5-2--3-3-3-3-3-| 
------------3-0------------| 
 
 
---------------------------| 
---------------------------| 
-2-2--7-6-2------5-5-5-5-5-| 
-2-2--7-6-2-5-2--5-5-5-5-5-| 
-0-0--5-4-0-5-2--3-3-3-3-3-| 
------------3-0------------| 
 
---------------------------| 
---------------------------| 
-2-2--7-6-2------5-5-5-5-5-| 
-2-2--7-6-2-5-2--5-5-5-5-5-| 
-0-0--5-4-0-5-2--3-3-3-3-3-| 
------------3-0------------| 
 
 
---------------------------| 
---------------------------| 
-2-2--7-6-2------5-5-5-5-5-| 
-2-2--7-6-2-5-2--5-5-5-5-5-| 
-0-0--5-4-0-5-2--3-3-3-3-3-| 
------------3-0------------| 
 
---------------------------| 
---------------------------| 
-2-2--7-6-2------5-5-5-5-5-| 
-2-2--7-6-2-5-2--5-5-5-5-5-| 
-0-0--5-4-0-5-2--3-3-3-3-3-| 
------------3-0------------| 
 
 
---------------------------| 
 
---------------------------| 
-2-2--7-6-2------5-5-5-5-5-| 
-2-2--7-6-2-5-2--5-5-5-5-5-| 
-0-0--5-4-0-5-2--3-3-3-3-3-| 
------------3-0------------| 
 
BRIDGE 
 
----------------------------| 
----------------------------| 
------------------5-5-5-5-5-| 
------------------5-5-5-5-5-| 
-0-0--5-4--0------3-3-3-3-3-| 
-------------3-0------------| 
 
----------------------------| 
----------------------------| 
------------------5-5-5-5-5-| 
------------------5-5-5-5-5-| 
-0-0--5-4--0------3-3-3-3-3-| 
-------------3-0------------| 
 
----------------------------| 
----------------------------| 
------------------5-5-5-5-5-| 
------------------5-5-5-5-5-| 
-0-0--5-4--0------3-3-3-3-3-| 
-------------3-0------------| 
 
----------------------------| 
----------------------------| 
------------------5-5-5-5-5-| 
------------------5-5-5-5-5-| 
-0-0--5-4--0------3-3-3-3-3-| 
-------------3-0------------| 
 
----------------------------------------------------------| 
----------------------------------------------------------| 
-2--2--2-2----4--4-4--4-4----x--7--7--7-7-----9--9-9--9-9-| 
-2--2--2-2--0-4--4-4--4-4--0-x--7--7--7-7-x-0-9--9-9--9-9-| 
-0--0--0-0--0-2--2-2--2-2--0-x--5--5--5-5-x-0-7--7-7--7-7-| 
----------------------------------------------------------| 
 
-----------------------| 
-----------------------| 
-2--2--2-2----9-8-7--5-| 
-2--2--2-2--0-9-8-7--5-| 
-0--0--0-0--0-7-6-5--3-| 
-----------------------| 
 

	  

No existe una video leccione para esta canción

request
LosAcordes
Buscar
auto avanzar rasgueos aumentar disminuir cambiar color esconder acordes gráficos
losacordes exhibir acordes losacordes youTube video losacordes ocultar tabs losacordes ir hacia arriba losacordes