Silverchair

Início > Silverchai... > acordes

London's Burning Tablatura

Silverchair

Dificultad:Ningún gradoNingún grado

tuner correct add songbook print version text version salvar en e-mail
acordesukuleletablaturabajobateríaarmónicaflautacavacopiano Guitar Pro
acordes

London's Burning

	   
Standard tuning. 
 
{0:00}              x4 
e||-----------------|| 
B||-----------------|| 
G||-o-------------o-|| 
D||-o-------------o-|| 
A||----5-5-5-5-4----|| 
E||----3-3-3-3-3----|| 
London's burning!  (x4) 
 
{0:43} 
      G5      F5      C5      D5         x4 
||---------------------------------------|| 
||---------------------------------------|| 
||-o------------------5-5-5-5-7-7-7-7--o-|| 
||-o--5-5-5-5-3-3-3-3-5-5-5-5-7-7-7-7--o-|| 
||----5-5-5-5-3-3-3-3-3-3-3-3-5-5-5-5----|| 
||----3-3-3-3-1-1-1-1--------------------|| 
 
{0:54} 
|-3-3-3-3-| 
|-3-3-3-3-| 
|---------| 
|---------| 
|---------| 
|---------| 
All across the town, all across the night 
Everybody's driving with full headlights 
Black or white turn it on, face the new religion 
Everybody's sitting 'round watching television! 
 
{1:05} 
      G5      F5      C5      D5         x4 
||---------------------------------------|| 
||---------------------------------------|| 
||-o------------------5-5-5-5-7-7-7-7--o-|| 
||-o--5-5-5-5-3-3-3-3-5-5-5-5-7-7-7-7--o-|| 
||----5-5-5-5-3-3-3-3-3-3-3-3-5-5-5-5----|| 
||----3-3-3-3-1-1-1-1--------------------|| 
London's burning with boredom now 
London's burning dial 99999 
London's burning with boredom now 
London's burning dial 99999 
 
{1:16} 
|--------------| 
|--------------| 
|--------------| 
|-8h9----11h12-| 
|--------------| 
|--------------| 
I'm up and down the Westway, in an' out the lights 
What a great traffic system - it's so bright 
I can't think of a better way to spend the night 
Then speeding around underneath the yellow lights 
 
{1:27} 
      G5      F5      C5      D5         x4 
||---------------------------------------|| 
||---------------------------------------|| 
||-o------------------5-5-5-5-7-7-7-7--o-|| 
||-o--5-5-5-5-3-3-3-3-5-5-5-5-7-7-7-7--o-|| 
||----5-5-5-5-3-3-3-3-3-3-3-3-5-5-5-5----|| 
||----3-3-3-3-1-1-1-1--------------------|| 
London's burning with boredom now 
London's burning dial 99999 
London's burning with boredom now 
London's burning dial 99999 
 
{1:38} 
Now I'm in the subway and I'm looking for the flat 
This one leads to this block, this one leads to that 
The wind howls through the empty blocks looking for a home 
I run through the empty stone because I'm all alone 
 
{1:50} 
      G5      F5      C5      D5         x4 
||---------------------------------------|| 
||---------------------------------------|| 
||-o------------------5-5-5-5-7-7-7-7--o-|| 
||-o--5-5-5-5-3-3-3-3-5-5-5-5-7-7-7-7--o-|| 
||----5-5-5-5-3-3-3-3-3-3-3-3-5-5-5-5----|| 
||----3-3-3-3-1-1-1-1--------------------|| 
London's burning with boredom now 
London's burning dial 99999 
London's burning with boredom now 
London's burning dial 99999 
 
{2:02} Guitar solo 
 
{2:23}             x4 
||-----------------|| 
||-----------------|| 
||-o-------------o-|| 
||-o-------------o-|| 
||----5-5-5-5-4----|| 
||----3-3-3-3-3----|| 
London's burning! (x4) 
 
_______________________________________________________ 
Contribuição: Rafael Ortiz P. Silva([email protected]) 

	  

No existe una video leccione para esta canción

request
Aumentar uno tonoAumentar uno tono
Aumentar uno semi-tonoAumentar uno semi-tono
Disminuir uno semi-tonoDisminuir uno semi-tono
Disminuir uno tonoDisminuir uno semi-tono
LosAcordes
Buscar
auto avanzar rasgueos aumentar disminuir cambiar color esconder acordes gráficos
losacordes exhibir acordes losacordes youTube video losacordes ocultar tabs losacordes ir hacia arriba losacordes