Silverchair

Início > Silverchai... > acordes

Lie To Me Tablatura

Silverchair

Dificultad:Ningún gradoNingún grado

tuner correct add songbook print version text version salvar en e-mail
acordesukuleletablaturabajobateríaarmónicaflautacavacopiano Guitar Pro
acordes

Lie To Me

	   
**TUNING** 
Standard (i am 100% becuz Daniel played it with his standard tuned red PRS 
both the times i have seen them live) 
 
**KEY** 
~-vibrato, trill... 
X-random pick scrapes 
^(1/2)-bend up a half step 
 
VERSE 1 
E|---------------------------------|---------------------------------| 
B|---------------------------------|---------------------------------| 
G|---------------------------------|---------------------------------| 
D|-5-5-5-5-5-5-5-5-6-6-6-6-3-3-3-3-|-5-5-5-5-5-5-5-5-6-6-6-6-3-3-3-3-| 
A|-3-3-3-3-5-5-5-5-6-6-6-6-3-3-3-3-|-3-3-3-3-5-5-5-5-6-6-6-6-3-3-3-3-| 
E|-3-3-3-3-3-3-3-3-4-4-4-4-1-1-1-1-|-3-3-3-3-3-3-3-3-4-4-4-4-1-1-1-1-| 
 
E|---------------------------------|---------------------------------| 
B|---------------------------------|---------------------------------| 
G|---------------------------------|---------------------------------| 
D|-5-5-5-5-5-5-5-5-6-6-6-6-3-3-3-3-|-5-5-5-5-5-5-5-5-6-6-6-6-3-3-3-3-| 
A|-3-3-3-3-5-5-5-5-6-6-6-6-3-3-3-3-|-3-3-3-3-5-5-5-5-6-6-6-6-3-3-3-3-| 
E|-3-3-3-3-3-3-3-3-4-4-4-4-1-1-1-1-|-3-3-3-3-3-3-3-3-4-4-4-4-1-1-1-1-| 
 
E|---------------------------------|---------------------------------| 
B|---------------------------------|---------------------------------| 
G|---------------------------------|---------------------------------| 
D|-5-5-5-5-5-5-5-5-6-6-6-6-3-3-3-3-|-5-5-5-5-5-5-5-5-6-6-6-6-3-3-3-3-| 
A|-3-3-3-3-5-5-5-5-6-6-6-6-3-3-3-3-|-3-3-3-3-5-5-5-5-6-6-6-6-3-3-3-3-| 
E|-3-3-3-3-3-3-3-3-4-4-4-4-1-1-1-1-|-3-3-3-3-3-3-3-3-4-4-4-4-1-1-1-1-| 
 
E|---------------------------------|---------------------------------| 
B|---------------------------------|---------------------------------| 
G|---------------------------------|---------------------------------| 
D|-5-5-5-5-5-5-5-5-6-6-6-6-3-3-3-3-|-5-5-5-5-5-5-5-5-6-6-6-6-3-3-3-3-| 
A|-3-3-3-3-5-5-5-5-6-6-6-6-3-3-3-3-|-3-3-3-3-5-5-5-5-6-6-6-6-3-3-3-3-| 
E|-3-3-3-3-3-3-3-3-4-4-4-4-1-1-1-1-|-3-3-3-3-3-3-3-3-4-4-4-4-1-1-1-1-| 
 
E|---------------------------------|--------------------------| 
B|---------------------------------|--------------------------| 
G|---------------------------------|--------------------------| 
D|-5-5-5-5-5-5-5-5-6-6-6-6-3-3-3-3-|-5-5-5-5-5-5-5-5----------| 
A|-3-3-3-3-5-5-5-5-6-6-6-6-3-3-3-3-|-3-3-3-3-5-5-5-5-3-5--3-5-| 
E|-3-3-3-3-3-3-3-3-4-4-4-4-1-1-1-1-|-3-3-3-3-3-3-3-3-4-3--4-3-| 
 
VERSE 2 
E|---------------------------------|---------------------------------| 
B|---------------------------------|---------------------------------| 
G|---------------------------------|---------------------------------| 
D|-5-5-5-5-5-5-5-5-6-6-6-6-3-3-3-3-|-5-5-5-5-5-5-5-5-6-6-6-6-3-3-3-3-| 
A|-3-3-3-3-5-5-5-5-6-6-6-6-3-3-3-3-|-3-3-3-3-5-5-5-5-6-6-6-6-3-3-3-3-| 
E|-3-3-3-3-3-3-3-3-4-4-4-4-1-1-1-1-|-3-3-3-3-3-3-3-3-4-4-4-4-1-1-1-1-| 
 
E|---------------------------------|--------------------------| 
B|---------------------------------|--------------------------| 
G|---------------------------------|--------------------------| 
D|-5-5-5-5-5-5-5-5-6-6-6-6-3-3-3-3-|-5-5-5-5-5-5-5-5----------| 
A|-3-3-3-3-5-5-5-5-6-6-6-6-3-3-3-3-|-3-3-3-3-5-5-5-5-3-5--3-5-| 
E|-3-3-3-3-3-3-3-3-4-4-4-4-1-1-1-1-|-3-3-3-3-3-3-3-3-4-3--4-3-| 
 
INTERLUDE 
   ~~~~ 
E|------------| 
B|------------| 
G|------------| 
D|------------| 
A|-3-----X---| 
E|------------| 
 
E|---------------------------------|---------------------------------| 
B|---------------------------------|---------------------------------| 
G|---------------------------------|---------------------------------| 
D|-5-5-5-5-5-5-5-5-6-6-6-6-3-3-3-3-|-5-5-5-5-5-5-5-5-6-6-6-6-3-3-3-3-| 
A|-3-3-3-3-5-5-5-5-6-6-6-6-3-3-3-3-|-3-3-3-3-5-5-5-5-6-6-6-6-3-3-3-3-| 
E|-3-3-3-3-3-3-3-3-4-4-4-4-1-1-1-1-|-3-3-3-3-3-3-3-3-4-4-4-4-1-1-1-1-| 
 
E|---------------------------------|---------------------------------| 
B|---------------------------------|---------------------------------| 
G|---------------------------------|---------------------------------| 
D|-5-5-5-5-5-5-5-5-6-6-6-6-3-3-3-3-|-5-5-5-5-5-5-5-5-6-6-6-6-3-3-3-3-| 
A|-3-3-3-3-5-5-5-5-6-6-6-6-3-3-3-3-|-3-3-3-3-5-5-5-5-6-6-6-6-3-3-3-3-| 
E|-3-3-3-3-3-3-3-3-4-4-4-4-1-1-1-1-|-3-3-3-3-3-3-3-3-4-4-4-4-1-1-1-1-| 
 
E|---------------------------------|---------------------------------| 
B|---------------------------------|---------------------------------| 
G|---------------------------------|---------------------------------| 
D|-5-5-5-5-5-5-5-5-6-6-6-6-3-3-3-3-|-5-5-5-5-5-5-5-5-6-6-6-6-3-3-3-3-| 
A|-3-3-3-3-5-5-5-5-6-6-6-6-3-3-3-3-|-3-3-3-3-5-5-5-5-6-6-6-6-3-3-3-3-| 
E|-3-3-3-3-3-3-3-3-4-4-4-4-1-1-1-1-|-3-3-3-3-3-3-3-3-4-4-4-4-1-1-1-1-| 
 
E|---------------------------------|--------------------------| 
B|---------------------------------|--------------------------| 
G|---------------------------------|--------------------------| 
D|-5-5-5-5-5-5-5-5-6-6-6-6-3-3-3-3-|-5-5-5-5-5-5-5-5----------| 
A|-3-3-3-3-5-5-5-5-6-6-6-6-3-3-3-3-|-3-3-3-3-5-5-5-5-3-5--3-5-| 
E|-3-3-3-3-3-3-3-3-4-4-4-4-1-1-1-1-|-3-3-3-3-3-3-3-3-4-3--4-3-| 
 
E|---------| 
B|---------| 
G|---------| 
D|---------| 
A|-3^(1/2)-| 
E|---------| 

	  

No existe una video leccione para esta canción

request
LosAcordes
Buscar
auto avanzar rasgueos aumentar disminuir cambiar color esconder acordes gráficos
losacordes exhibir acordes losacordes youTube video losacordes ocultar tabs losacordes ir hacia arriba losacordes