Silverchair

Início > Silverchai... > acordes

Emotion Sickness Tablatura

Silverchair

Dificultad:AdelantadoAdelantado

tuner correct add songbook print version text version salvar en e-mail
acordesukuleletablaturabajobateriaarmónicaflautacavacopiano Guitar Pro
acordes

Emotion Sickness

	   
Versão 1 
-======- 
 
 
 Tablature explanation 
 
b   : bend 
s   : slide 
h   : hammer-on 
p   : pull-off 
x   : muffled string 
P.M.: palm mute 
 
Dropped  D  tuning one half step down (from low to high:Db-Ab-Db-Gb-Bb-Eb), written chords 
are relative to a "normal" Dropped-D 
 
 
{0:00} 
         D5     F5     A#5    A5+  
eb||----------------------------------|| x2 
Bb||----------------------------------|| 
Gb||-o----------------3-3-3--2-2-2--o-|| 
Db||-o--0-0-0--3-3-3--3-3-3--3-3-3--o-|| 
Ab||----0-0-0--3-3-3--1-1-1--0-0-0----|| 
Db||----0-0-0--3-3-3------------------|| 
 
{0:08} 
|-----------------------------------------------------------------| 
|-----3-------3-------3-------3-------3-------3-------------------| 
|-----------------------------------------------------2-------2---| 
|---3---3---3---3---3---3---3---3---3---3---3---3---3---3---3---3-| 
|-----------------1-------0-------1-------1-------1-------1-------| 
|-0-------3-------------------------------------------------------| 
Erupt again ignore the pill 
 
|-----------------------------------------------------------------| 
|-----3-------3-------3-------3-------3-------3-------3-------3---| 
|-----------------------------------------------------------------| 
|---3---3---3---3---3---3---3---3---3---3---3---3---3---3---3---3-| 
|-----------------1-------0-------1-------1-------3-------3-------| 
|-0-------3-------------------------------------------------------| 
And I won't let it show 
 
|-----------------------------------------------------------------| 
|-----3-------3-------3-------3-------3-------3-------3-------3---| 
|-----------------------------------------------------------------| 
|---3---3---3---3---3---3---3---3---3---3---3---3---3---3---3---3-| 
|-----------------1-------0-------1-------1-------1-------1-------| 
|-0-------3-------------------------------------------------------| 
Sacrifice the tortures 
 
|-----------------------------------------------------------------| 
|-----3-------3-------3-------3-------3-------3-------3-------3---| 
|-----------------------------------------------------------------| 
|---3---3---3---3---3---3---3---3---3---3---3---3---3---3---3---3-| 
|-----------------1-------0-------1-------1-------3-------3-------| 
|-0-------3-------------------------------------------------------| 
Orchestral tear cash-flow 
 
{0:35} 
   D5     F5     A#5    A5+  
|----------------------------| 
|----------------------------| 
|---------------3-3-3--2-2-2-| 
|-0-0-0--3-3-3--3-3-3--3-3-3-| 
|-0-0-0--3-3-3--1-1-1--0-0-0-| 
|-0-0-0--3-3-3---------------| 
 
{0:39} 
|-----------------------------------------------------------------| 
|-----3-------3-------3-------3-------3-------3-------------------| 
|-----------------------------------------------------2-------2---| 
|---3---3---3---3---3---3---3---3---3---3---3---3---3---3---3---3-| 
|-----------------1-------0-------1-------1-------1-------1-------| 
|-0-------3-------------------------------------------------------| 
Increase delete escape defeat 
It's all that matters to you 
 
|-----------------------------------------------------------------| 
|-----3-------3-------3-------3-------3-------3-------3-------3---| 
|-----------------------------------------------------------------| 
|---3---3---3---3---3---3---3---3---3---3---3---3---3---3---3---3-| 
|-----------------1-------0-------1-------1-------3-------3-------| 
|-0-------3-------------------------------------------------------| 
Cotton case for an iron pill 
 
{0:53} 
|--------------------------| 
|--------------------------| 
|----2-------2-------2-----| 
|--2---2---2---2---2---2---| 
|-0------0-------4-------7-| 
|--------------------------| 
Distorted eyes 
When everything is clearly dying 
 
{1:00} 
||-----------------------------------------------------|| x4 
||-----------------------------------------------------|| 
||-o--2-----0-----3-----2---2-----2-----2-----2------o-|| 
||-o----0-----0-----0-----0---3-----3-----2-----2----o-|| 
||------------------------------2-----2-----0-----0----|| 
||--------0-----0-----0--------------------------------|| 
Burn my knees and (x3) 
 
{1:28} Distortion on 
|-------------------------| 
|-------------------------| 
|---2-------2---2-------2-| 
|---------0-----------0---| 
|-0---0-0-----0---0-0-----| 
|-------------------------| 
 
{1:32} Distortion off 
   D5                                C5              A5  
|-----------------------------------------------------------------| 
|-----------------------------------------------------------------| 
|-7-7-7-7-7-7-7-7-7-7-7-7-7-7-7-7-5-5-5-5-5-5-5-5-2-2-2-2-2-2-2-2-| 
|-7-7-7-7-7-7-7-7-7-7-7-7-7-7-7-7-5-5-5-5-5-5-5-5-2-2-2-2-2-2-2-2-| 
|-5-5-5-5-5-5-5-5-5-5-5-5-5-5-5-5-3-3-3-3-3-3-3-3-0-0-0-0-0-0-0-0-| 
|-----------------------------------------------------------------| 
 
       D5                                C5                                  x3 
||-----------------------------------------------------------------------|| 
||-----------------------------------------------------------------------|| 
||-o--7-7-7-7-7-7-7-7-7-7-7-7-7-7-7-7-5-5-5-5-5-5-5-5-5-5-5-5-5-5-5-5--o-|| 
||-o--7-7-7-7-7-7-7-7-7-7-7-7-7-7-7-7-5-5-5-5-5-5-5-5-5-5-5-5-5-5-5-5--o-|| 
||----5-5-5-5-5-5-5-5-5-5-5-5-5-5-5-5-3-3-3-3-3-3-3-3-3-3-3-3-3-3-3-3----|| 
||-----------------------------------------------------------------------|| 
Emotion sickness 
Addict with no heroine 
Emotion sickness 
 
{2:00} 
|--------------------------| 
|--------------------------| 
|----2-------2-------2-----| 
|--2---2---2---2---2---2---| 
|-0------0-------4-------7-| 
|--------------------------| 
Distorted eyes 
When everything is clearly dying 
 
{2:08} Distortion on 
       D5               C5  
||----------------------------------------|| x2 
||----------------------------------------|| 
||-o--7------7------7--5------5------5--o-|| 
||-o--7------7------7--5------5------5--o-|| 
||----5--5-5-5--5-5-5-s3--3-3-3--3-3-3----|| 
||----------------------------------------|| 
         ***    ***           ***    ***      *:Palm Mute 
 
       D5                  A#5    B5  
||------------------------------------------|| x4 
||------------------------------------------|| 
||-o--7------7------7--3------3--4-----4--o-|| 
||-o--7------7------7--3------3--4-----4--o-|| 
||----5--5-5-5--5-5-5-s1--1-1-1--2-2-2-2----|| 
||------------------------------------------|| 
         ***    ***       ***      *** 
 
{2:52} 
||-----------------------------------------------------|| x4 
||-----------------------------------------------------|| 
||-o--2-----0-----3-----2---2-----2-----2-----2------o-|| 
||-o----0-----0-----0-----0---3-----3-----2-----2----o-|| 
||------------------------------2-----2-----0-----0----|| 
||--------0-----0-----0--------------------------------|| 
Burn my knees and 
Burn my knees and pray 
Burn my knees and 
Burn my knees and pray 
 
{3:22} 
       D5                                C5                                  x4 
||-----------------------------------------------------------------------|| 
||-----------------------------------------------------------------------|| 
||-o--7-7-7-7-7-7-7-7-7-7-7-7-7-7-7-7-5-5-5-5-5-5-5-5-5-5-5-5-5-5-5-5--o-|| 
||-o--7-7-7-7-7-7-7-7-7-7-7-7-7-7-7-7-5-5-5-5-5-5-5-5-5-5-5-5-5-5-5-5--o-|| 
||----5-5-5-5-5-5-5-5-5-5-5-5-5-5-5-5-3-3-3-3-3-3-3-3-3-3-3-3-3-3-3-3----|| 
||-----------------------------------------------------------------------|| 
Get up get up get up get up 
Get up get up get up 
Won't you stop my pain 
 
{3:52} 
       D5     F5     A#5    A5+       x3 
||----------------------------------||-----------------| 
||----------------------------------||-----------------| 
||-o----------------3-3-3--2-2-2--o-||-3-3-3--5-5-5--9-| 
||-o--0-0-0--3-3-3--3-3-3--3-3-3--o-||-3-3-3--5-5-5--9-| 
||----0-0-0--3-3-3--1-1-1--0-0-0----||-1-1-1--3-3-3--7-| 
||----0-0-0--3-3-3------------------||-----------------| 
 
{4:14}                                                                    x3 
||------------0-----3-----1-----0-1-0-|-----------------------------------|| 
||--------3---------------------------|--------3---------------3----------|| 
||-o----2---------2-----2-----2-------|-----4----4---4-----3-----3---3--o-|| 
||-o--0-----0---0-----0-----0---------|---4--------4-----3---------3----o-|| 
||------------------------------------|-2-----2--------1-----1------------|| 
||------------------------------------|-----------------------------------|| 
 
{4:39} 
Emotion sickness 
Addict with no heroine 
Good things will pass 
It helps with excess access 
Lessons learnt 
Emotion sickness 
Lessons learnt 
 
_____________________________________________________________ 
 
 
 
Versão 2 
-======- 
 
Legenda 
PM = Palm Muting (Abafado) 
X = Nota não tocada 
^ = Tremolo 
 
Afinação:  Db  Aberto (Open  Db ) 
 
{0:00} Distorção Desligada 
           D5   Fadd6    A#    Bb  
Db|----0-0-0--0-0-0--0-0-0--0-0-0----| x2 
Db|----0-0-0--0-0-0--0-0-0--0-0-0----| 
Ab|----0-0-0--0-0-0--3-3-3--1-1-1----| 
Db|----0-0-0--3-3-3--3-3-3--x-x-x----| 
Ab|----0-0-0--3-3-3--1-1-1--1-1-1----| 
Db|----0-0-0--3-3-3------------------| 
 
{0:08} Distorção Desligada 
 
|-----------------------------------------------------------------| 
|-----------------------------------------------------------------| 
|-----3-------3-------3-------3-------3-------3-------0-------0---| 
|---3---3---3---3---3---3---3---3---3---3---3---3---3---3---3---3-| 
|-----------------1-------0-------1-------1-------1-------1-------| 
|-0-------3-------------------------------------------------------| 
Erupt again ignore the pill 
 
|-----------------------------------------------------------------| 
|-----------------------------------------------------------------| 
|-----3-------3-------3-------3-------3-------3-------3-------3---| 
|---3---3---3---3---3---3---3---3---3---3---3---3---3---3---2---2-| 
|-----------------1-------0-------1-------1-------3-------3-------| 
|-0-------3-------------------------------------------------------| 
And I won't let it show 
 
|-----------------------------------------------------------------| 
|-------------------------------------0-------0-------0------0----| 
|-----3-------3-------3-------3---------3-------3-------3------3--| 
|---3---3---3---3---3---3---3---3---3-------3------3--------3-----| 
|-----------------1-------0-------1-------1-------1-------1-------| 
|-0-------3-------------------------------------------------------| 
Sacrifice the tortures 
 
|-----------------------------------------------------------------| 
|-----------------------------------------------------------------| 
|-----3-------3-------3-------3-------3-------3-------3-------3---| 
|---3---3---3---3---3---3---3---3---3---3---3---3---3---3---2---2-| 
|-----------------1-------0-------1-------1-------3-------3-------| 
|-0-------3-------------------------------------------------------| 
Orchestral tear cash-flow 
 
{0:35} Distorção Desligada 
    D5    F5add6   A#    Bb  
|-0-0-0--0-0-0--0-0-0--0-0-0-| 
|-0-0-0--0-0-0--0-0-0--0-0-0-| 
|-0-0-0--0-0-0--3-3-3--1-1-1-| 
|-0-0-0--3-3-3--3-3-3--x-x-x-| 
|-0-0-0--3-3-3--1-1-1--1-1-1-| 
|-0-0-0--3-3-3---------------| 
 
{0:39} Distorção Desligada 
|-----------------------------------------------------------------| 
|-------------------------------------0-------0-------0-------0---| 
|-----3-------3-------3-------3---------3-------3-------3-------3-| 
|---3---3---3---3---3---3---3---3---3-------3-------3-------3-----| 
|-----------------1-------0-------1-------1-------1-------1-------| 
|-0-------3-------------------------------------------------------| 
Increase delete escape defeat it's all that matters to you 
 
|-----------------------------------------------------------------| 
|-----------------------------------------------------------------| 
|-----3-------3-------3-------3-------3-------3-------3-------3---| 
|---3---3---3---3---3---3---3---3---3---3---3---3---3---3---2---2-| 
|-----------------1-------0-------1-------1-------3-------3-------| 
|-0-------3-------------------------------------------------------| 
Cotton case for an iron pill 
 
{0:53} Distorção Desligada 
|----------------------------------------------------| 
|----------------------------------------------------| 
|-----7-------7-------5-------5-------4-------4----7-| 
|---7---7---7---7---7---7---7---7---7---7---7---7--7-| 
|-0-------0-------0-------0-------0-------0--------0-| 
|----------------------------------------------------| 
Distorted eyes 
When everything is clearly dying 
 
{1:00} Distorção Desligada                                                 x4 
|-----------------------------------------------------------------------| 
|------7-------5--------8--------7-------7-------7-------7-------7------| 
|----8---8---7---7---10---10---8---8---7---7---7---7---4---4---4---4----| 
|--0-------0-------0---------0------------------------------------------| 
|------------------------------------0-------0-------0-------0----------| 
|-----------------------------------------------------------------------| 
Burn my knees and (x3) 
 
{1:28} Distorção Ligada                  x2 
|----------------0---------------0------| 
|--------7---------7-----7---------7----| 
|------4---4---4-------4---4---4--------| 
|---------------------------------------| 
|----0-------0-------0-------0----------| 
|---------------------------------------| 
     PM     PM      PM      PM 
 
{1:32} Distorção Desligada 
   D5                                C5               			x3 
|-------------------------------------------------------------------| 
|-------------------------------------------------------------------| 
|-5-5-5-5-5-5-5-5-5-5-5-5-5-5-5-5-3-3-3-3-3-3-3-3-3-3-3-3-3-3-3-3-3-| 
|-7-7-7-7-7-7-7-7-7-7-7-7-7-7-7-7-5-5-5-5-5-5-5-5-5-5-5-5-5-5-5-5-5-| 
|-5-5-5-5-5-5-5-5-5-5-5-5-5-5-5-5-3-3-3-3-3-3-3-3-3-3-3-3-3-3-3-3-3-| 
|-------------------------------------------------------------------| 
 
Emotion sickness 
Addict with no heroine 
Emotion sickness 
 
{2:00} Distorção (Leve) Ligada  
|----------------------------------------------------| 
|----------------------------------------------------| 
|-----7-------7-------5-------5-------4-------4----7-| 
|---7---7---7---7---7---7---7---7---7---7---7---7--7-| 
|-0-------0-------0-------0-------0-------0--------0-| 
|----------------------------------------------------| 
Distorted eyes 
When everything is clearly dying 
 
{2:08} Distorção Ligada 
       D5                 C5  
|-----------------------------------------------| x2 
|-----------------------------------------------| 
|----5--5-5--5--5-5-5--53--3-3--3--3-3-3--3----| 
|----7--7-7--7--7-7-7--75--5-5--5--5-5-5--5----| 
|----5--5-5--5--5-5-5--53--3-3--3--3-3-3--3----| 
|-----------------------------------------------| 
        PMPM      PMPM      PMPM      PMPM 
 
 
{2:23} Distorção Ligada 
           D5                 Bb5       B5  
|-----------------------------------------------| x4 
|-----------------------------------------------| 
|-----------------------------------------------| 
|----7--7-7-7-7--7-7-7-73-3-3-3--4-4-4-4-4-----| 
|----5--5-5-5-5--5-5-5-51-1-1-1--2-2-2-2-2-----| 
|-----------------------------------------------| 
	  PMPM     PMPM	      PMPM     PMPM 
 
{2:23} Versão Ao Vivo - Distorção Ligada 
           D5                 Bb5       B5  
|--------------------------------------------------| 
|--------------------------------------------------| 
|--------------------------------------------------| 
|----7--7-7-7/12---------3-3-3-3--4-4-4-4-4--------| 
|----5--5-5-5------5/12-/1-1-1-1--2-2-2-2-2--12--| 
|----------------0---------------------------12--| 
	  PMPM              PMPM      PMPM  
 
|--------------------------------------------------| 
|--------------------------------------------------| 
|-------12-13-----3-3/5-5--------------------------| 
|-0-0-0-xx-xx-----x-x-x-x-3-3-3-3--4-4-4-4-4-------| 
|-0-0-0-12-13-----3-3/5-5-1-1-1-1--2-2-2-2-2-------| 
|-0-0-0--------0-----------------------------------| 
	  PMPM                PMPM      PMPM  
 
 
 
 
|------------------------------------------------| 
|------------------------------------------------| 
|---5-3-5-----5-3-5-3-5-3------------------------| 
|-0-x-x-x-----x-x-x-x-x-x----3-3-3-3--4-4-4------| 
|-0?5-5-5-----5-5-5-5-5-5----1-1-1-1--2-2-2------| 
|-0-------0---------------0------------------3^0-| 
	 			PMPM     PMPM 
 
|--------------------------------------------------| 
|--------------------------------------------------| 
|-------12-13-----3-3/5-5--------------------------| 
|-0-0-0-xx-xx-----x-x-x-x-3-3-3-3--4-4-4-4-4-------| 
|-0-0-0-12-13-----3-3/5-5-1-1-1-1--2-2-2-2-2-------| 
|-0-0-0--------0-----------------------------------| 
	  PMPM                PMPM      PMPM 
 
{2:52} Distorção Ligada          
					                                 x4 
|-----------------------------------------------------------------------| 
|-------7-------5--------8--------7-----3-------3-------2------0------0-| 
|-----8---8---7---7---10---10---8---8-----0-------0-------0------0------| 
|---0-------0-------0---------0-------------0-------0-------0------0----| 
|-------------------------------------3-------3-------3-------3---------| 
|-----------------------------------------------------------------------| 
Burn my knees and 
Burn my knees and pray 
Burn my knees and 
Burn my knees and pray 
 
{3:22} Distorção Desligada Ou Distorção (Leve) Ligada e Palm Muting 
       D5                                C5                               x4 
|---------------------------------------------------------------------| 
|---------------------------------------------------------------------| 
|----5-5-5-5-5-5-5-5-5-5-5-5-5-5-5-5-3-3-3-3-3-3-3-3-3-3-3-3-3-3-3-3--| 
|----7-7-7-7-7-7-7-7-7-7-7-7-7-7-7-7-5-5-5-5-5-5-5-5-5-5-5-5-5-5-5-5--| 
|----5-5-5-5-5-5-5-5-5-5-5-5-5-5-5-5-3-3-3-3-3-3-3-3-3-3-3-3-3-3-3-3--| 
|---------------------------------------------------------------------| 
Get up get up get up get up 
Get up get up get up 
Won't you stop my pain 
 
{3:52} Distorção Ligada 
        D5   F5add6   A#    Bb      x3     A#   Aadd6/9 Aadd9  
|----0-0-0--0-0-0--0-0-0--0-0-0----|--0-0-0--0-0-0--0-0-0--| 
|----0-0-0--0-0-0--0-0-0--0-0-0----|--0-0-0--3-3-3--2-2-2--| 
|----0-0-0--0-0-0--3-3-3--1-1-1----|--3-3-3--3-3-3--3-3-3--| 
|----0-0-0--3-3-3--3-3-3--x-x-x----|--3-3-3--0-0-0--0-0-0--| 
|----0-0-0--3-3-3--1-1-1--1-1-1----|--1-1-1--3-3-3--3-3-3--| 
|----0-0-0--3-3-3------------------|-----------------------| 
 
{4:13} Distorção Desligada                                             x4 
|--------7---8-----10-----8-------0---------------------------------0---| 
|--------------7------7-----7-------7-----------0-------------2-------2-| 
|------8---8-----8------8-----8-------------4-----4-------3-----3-------| 
|----0--------------------------0-----0---4---------4---3---3-----3-----| 
|---------------------------------------2-----2-------1-----------------| 
|-----------------------------------------------------------------------| 
 
{4:39} Distorção Desligada 
       D5                                  A#                        x4 
|----7--7-7-7--7-7--7-7--7-7-7-7--|----0--0-0-0--0-0--0-0--0-0--| 
|----7--7-7-7--7-7--7-7--7-7-7-7--|----0--0-0-0--0-0--2-2--0-0--| 
|----8--8-8-8--8-8--8-8--8-8-8-8--|----3--3-3-3--3-3--3-3--3-3--| 
|----0--0-0-0--0-0--0-0--0-0-0-0--|----3--3-3-3--3-3--3-3--3-3--| 
|----0--0-0-0--0-0--0-0--0-0-0-0--|----1--1-1-1--1-1--1-1--1-1--| 
|----0--0-0-0--0-0--0-0--0-0-0-0--|-----------------------------| 
Emotion sickness 
Addict with no heroine 
Good things will pass 
It helps with excess access 
Lessons learnt 
Emotion sickness 
Lessons learnt 
 
{5:35} Distorção Desligada 
|-----7---8-----10-----8-------0-------------------------------------| 
|-----------7------7-----7-------7-----------0-------------0-------0-| 
|---8---8-----8------8-----8-------0-----3-----3-------4-----4---4---| 
|-0--------------------------0---------3---------3---4---4-----4-----| 
|------------------------------------1-----1-------2-----------------| 
|--------------------------------------------------------------------| 
 
|-----7---8-----10-----8-------0---------------------| 
|-----------7------7-----7-------7-----------0-------| 
|---8---8-----8------8-----8-------0-----3-----3---4-| 
|-0--------------------------0---------3---------3-4-| 
|------------------------------------1-----1-------2-| 
|----------------------------------------------------| Deixe Soar 
 
 
_______________________________________________________ 
Contribuição: Marco Antonio Pedroso Jr([email protected]) 

	  

No existe una video leccione para esta canción

request
LosAcordes
Buscar
auto avanzar rasgueos aumentar disminuir cambiar color esconder acordes gráficos
losacordes exhibir acordes losacordes youTube video losacordes ocultar tabs losacordes ir hacia arriba losacordes