Silverchair

Início > Silverchai... > acordes

Do You Feel The Same Tablatura

Silverchair

Dificultad:IntermedioIntermedio

tuner correct add songbook print version text version salvar en e-mail
acordesukuleletablaturabajobateriaarmónicaflautacavacopiano Guitar Pro
acordes

Do You Feel The Same

	   
 Tablature explanation 
 
b   : bend 
s   : slide 
h   : hammer-on 
p   : pull-off 
x   : muffled string 
P.M.: palm mute 
 
Standard tuning 
 
{0:00} Verse 
       A5       G5 F5        G5 
e||--------5-----------1-----3----|| x4 
B||--------5-----------1-----3----|| 
G||-o------------------------x--o-|| 
D||-o--7-------7-5-3-------3-5--o-|| 
A||----7-------7-5-3-------3-5----|| 
E||----5-------5-3-1-------1-3----|| 
Moon covered determined 
To find 
To find my place of hiding 
Try to detach 
Try to decrease  
To make it easier on me 
Despise myself for what you've done 
Sent me back into my world 
Hold yourself 
Cause no one will 
I'll make it easier 
 
{0:31} doubled by an acoustic guitar 
  G   F   C   G   F   Am 
|-3---1---0-|-3---1---0-| 
|-3---1---1-|-3---1---1-| 
|-0---2---0-|-0---2---2-| 
|-0---3---2-|-0---3---2-| 
|-2---3---3-|-2---3---0-| 
|-3---1-----|-2---3-----| 
Now I have managed to be the one 
To be the victim without the gun 
 
{0:46} Chorus 
  A5  F   G5 D5  A5  F5  G5 
|--------------|-----------| 
|--------------|-----------| 
|------------7-|-----------| 
|-7---3---5--7-|-7---3---5-| 
|-7---3---5--5-|-7---3---5-| 
|-5---1---3----|-5---1---3-| 
Do you feel the same anyway 
Now you've come 
Do you feel the same anyway 
Now you've come 
 
{1:01} Verse 
      A5       G5 F5        G5 
||--------5-----------1-----3----|| x4 
||--------5-----------1-----3----|| 
||-o------------------------x--o-|| 
||-o--7-------7-5-3-------3-5--o-|| 
||----7-------7-5-3-------3-5----|| 
||----5-------5-3-1-------1-3----|| 
Hold yourself 
Cos noone will 
I'll be there to take the spill 
Cleanse your soul 
Change the tide and ride the wave back to me 
Stay alert cause I'm obsessed 
Surely I can't be depressed 
Could I be read if I was see-through 
Or would you just read my spine 
 
{1:31} doubled by an acoustic guitar 
  G   F   C   G   F   Am 
|-3---1---0-|-3---1---0-| 
|-3---1---1-|-3---1---1-| 
|-0---2---0-|-0---2---2-| 
|-0---3---2-|-0---3---2-| 
|-2---3---3-|-2---3---0-| 
|-3---1-----|-2---3-----| 
Now I have managed to be the one 
To be the victim without the gun 
 
{1:47} Chorus 
      A5  F   G5 D5   x3 A5 
||--------------------||---| 
||--------------------||---| 
||-o-------------7--o-||---| 
||-o--7---3---5--7--o-||-7-| 
||----7---3---5--5----||-7-| 
||----5---1---3-------||-5-| 
Do you feel the same anyway 
Now you've come 
Do you feel the same anyway 
Feel the same 
Now you've come 
Do you feel the same anyway. 
 
{2:16} undoubtedly played on a Gibson with the rhythm mic volume to zero 
and by switching the mic switch from the central and treble positions, 
and playing the notes in tremolo. 
|--------------|--------------| 
|--------------|--------------| 
|--------------|--------------| 
|--------------|--------------| 
|-----3--------|-----3--------| 
|-5-------1----|-5-------1----| 
 
{2:32} Guitar solo 
|--------------| 
|-5-------------| 
|-7h9h7-9------------| 
|---------7-7-5h-----| 
|--------------| 
|--------------| 
 
{3:01} doubled by an acoustic guitar 
  G   F   C   G   F   Am 
|-3---1---0-|-3---1---0-| 
|-3---1---1-|-3---1---1-| 
|-0---2---0-|-0---2---2-| 
|-0---3---2-|-0---3---2-| 
|-2---3---3-|-2---3---0-| 
|-3---1-----|-2---3-----| 
Be the one 
Without the gun 
 
{3:16} Chorus 
      A5  F   G5 D5   x3 A5 
||--------------------||---| 
||--------------------||---| 
||-o-------------7--o-||---| 
||-o--7---3---5--7--o-||-7-| 
||----7---3---5--5----||-7-| 
||----5---1---3-------||-5-| 
Do you feel the same anyway 
Now you've come 
Do you feel the same anyway 
Now you've come 
Do you feel the same anyway 
Feel the same 
Now you've come 
Do you feel the same anyway 
Now you've come 

	  

No existe una video leccione para esta canción

request
Aumentar uno tonoAumentar uno tono
Aumentar uno semi-tonoAumentar uno semi-tono
Disminuir uno semi-tonoDisminuir uno semi-tono
Disminuir uno tonoDisminuir uno semi-tono
LosAcordes
Buscar
auto avanzar rasgueos aumentar disminuir cambiar color esconder acordes gráficos
losacordes exhibir acordes losacordes youTube video losacordes ocultar tabs losacordes ir hacia arriba losacordes