Silverchair

Início > Silverchai... > acordes

Blind Tablatura

Silverchair

Dificultad:Ningún gradoNingún grado

tuner correct add songbook print version text version salvar en e-mail
acordesukuleletablaturabajobateríaarmónicaflautacavacopiano Guitar Pro
acordes

Blind

	   
*Tuning* 
Dropped D (D A D G B E-low to high) 
 
Key 
^-deliberate upstroke 
h-hammer-on 
PM=Palm Mute 
 
Verse 
E|-------------------------------| 
B|-------------------------------| 
G|--------------5-------4--------| 
D|-----0------5---5---4----------| 
A|---0---0--3-------2-----5-0-3--| 
D|-0----------------------5-0-3--| 
 
This is between the verses and before pre-chorus 
       ^ 
E|-----2----2--3-------| 
B|-----3----5--3-------| 
G|-----2----4--6-------| 
D|----------2--5-------| 
A|--0----0--2--3-------| 
D|--0----0--2--3-------| 
 
 
Pre-Chorus (Play Fast) 
E|-------------------------------| 
B|-------------------------------| 
G|-------------------------------| 
D|-0--0-0-2-0-0-3-0-0-2-0-0-6----| 
A|-0--0-0-2-0-0-3-0-0-2-0-0-6----| 
D|-0--0-0-2-0-0-3-0-0-2-0-0-6----| 
 
Chorus (play hammer-ons slow) 
E|-----------------------------------------------| 
B|-----------------------------------------------| 
G|-----------------------------------------------| 
D|--0-0-2h3-0-0-0-2h3---0-0---0-0-2h3-0-0-0-6-5--| 
A|--0-0-2h3-0-0-0-2h3---0-0---0-0-2h3-0-0-0-6-5--| 
D|--0-0-2h3-0-0-0-2h3---0-0---0-0-2h3-0-0-0-6-5--| 
                        P M 
 
 
Solo 
    ~~~~~~~~  ~~~~~~~~~~ 
E|-------------------------------| 
B|--13^--------------------------| 
G|------------12^----------------| 
D|-------------------------------| 
A|-------------------------------| 
D|-------------------------------| 
Note=this is all the solo i can transcribe as EXACT from memory...when i 
find time the actual solo will be posted. 
 
 
_______________________________________________________ 
Contribuição: Amanda Sena([email protected]) 

	  

No existe una video leccione para esta canción

request
Aumentar uno tonoAumentar uno tono
Aumentar uno semi-tonoAumentar uno semi-tono
Disminuir uno semi-tonoDisminuir uno semi-tono
Disminuir uno tonoDisminuir uno semi-tono
LosAcordes
Buscar
auto avanzar rasgueos aumentar disminuir cambiar color esconder acordes gráficos
losacordes exhibir acordes losacordes youTube video losacordes ocultar tabs losacordes ir hacia arriba losacordes