Silverchair

Início > Silverchai... > acordes

Ana's Song Tablatura

Silverchair

Dificultad:PrincipiantePrincipiante

guitarsoul

tuner correct add songbook print version text version salvar en e-mail
acordesukuleletablaturabajobateríaarmónicaflautacavacopiano Guitar Pro
acordes

Ana's Song

Tono:  Eb Más
Ana's Song Key A#A#
Ana's Song Key BB
Ana's Song Key CC
Ana's Song Key C#C#(Disminuir uno tono)
Ana's Song Key DD(Disminuir uno semi-tono)
Ana's Song Key EbEb(tono original)
Ana's Song Key EE(Aumentar uno semi-tono)
Ana's Song Key FF(Aumentar uno tono)
Ana's Song Key F#F#
Ana's Song Key GG
Ana's Song Key G#G#
Ana's Song Key AA
	   2ªGuitarra  (guitarra limpa)  
 Eb              Cm              Gm  
|------------------------------------|E|  
|-------------4--------3------3----|A|  
|-----8---------5---3---3------3--|D|  
|---8--8---5-----------------------|G|  
|-6-------3-------------------------|B|  
|-------------------3-------3-------|E|    
 
Eb         Cm   Gm  
Please die Ana          
       Eb            Cm      Gm  
For as long as you're here we're not       
     Eb        Cm        Gm  
You make the sound of laughter       
      Eb         Cm        G  
And sharpened nails seem softer  
        
|----3---------------------------|E|  
|--1---1/10-11-10--3/5----|A|   
|---------------------------------|D| >2ª guitarra 
|---------------------------------|G|  
|---------------------------------|B|   
|---------------------------------|E|  
       Eb      Cm      Gm 
And I need you now somehow    
|----3---------------------------|E|   
|--1---1/10-11-10--3/5----|A|   
|---------------------------------|D| >2ª guitarra   
|---------------------------------|G|   
|---------------------------------|B|   
|---------------------------------|E|       
       Eb      Cm      Gm  
And I need you now somehow   
  
E                F#m  
Open fire on the needs designed                  
      A                   Am   
On my knees for you  
E               F#m  
Open fire on my knees desires                  
       A                  Am 
What I need from you  
 Eb      Cm       Gm 
 
     (Antes do solo)  
|-------------------------|E|  
|-------------------------|A|  
|--5-5-5----------------|D|  >2ª guitarra  
|--5-5-5--5-5-5-------|G|  
|--3-3-3--5-5-5-------|B|  
|-----------3-3-3-------|E|  
             (Solo) 
|----3-----------------------------------|E|  
|-1----1/10-11-10---3/5-----------|A|  
|----------------------------------------|D|       
|----------------------------------------|G|    >2ª guitarra 
|----------------------------------------|B|  
|----------------------------------------|E|  
 
Eb         Cm     Gm  
Imagine a pageant  
       Eb       Cm          Gm  
In my head the flesh seems thicker  
|----------------------------------|E|  
|----------------------------------|A|  
|--8-8--8--8--------------------|D|  *Distorção  
|--8-8--8--8--5-5-3-5--5-3--|G|  
|--6-6--6--6--5-5-3-5--5-3--|B|  
|--6-6--6--6--3-3-3-3--3-3--|E|  
(  Eb     Cm      Gm   ) 
Sandpaper tears corrode the film  
 
 
|----3---------------------------|E|  
|--1---1/10-11-10--3/5----|A|   
|---------------------------------|D| >2ª guitarra 
|---------------------------------|G|  
|---------------------------------|B|   
|---------------------------------|E| 
Eb       Cm      Gm  
And I need you now somehow        
     
|----3---------------------------|E|  
|--1---1/10-11-10--3/5----|A|   
|---------------------------------|D| >2ª guitarra  
|---------------------------------|G|  
|---------------------------------|B|   
|---------------------------------|E| 
Eb       Cm      Gm  
And I need you now somehow  
  
E                F#m  
Open fire on the needs designed        
      A          Am  C  D  
On my knees for you  
E               F#m  
Open fire on my knees desires        
       A           Am C D  
What I need from you  
 
Cm         D    E  
And you're my obsession  
    C      D      E      E5-  
I love you to the bones  
    C   F             E  E5-  
And Ana wrecks your life  
|--------------------------0--|E|  
|-------------------------0---|A|  
|-----3-----------------------|D|    >2ª guitarra 
|---3--3-------3-------------|G|  
|-1---------3---3----2------|B|  
|----------1--------0--------|E| 
 
   Bb    F    Em  
Like an Anorexia life  
 
  ->guitarra limpa  
E                F#m  
Open fire on the needs designed                  
      A             *C G               *distorção 
On my knees for you  
E               F#m  
Open fire on my knees desires                  
       A		Am C G  
What I need from you  
  
E                F#m		A  
Open fire on the needs designed...  
Am  C G  
ooo...  
E               F#m  
Open fire on my knees desires                  
       A		C G  
What I need from you  
  
Solo: E F#m A  
	  

No existe una video leccione para esta canción

request
Aumentar uno tonoAumentar uno tono
Aumentar uno semi-tonoAumentar uno semi-tono
Disminuir uno semi-tonoDisminuir uno semi-tono
Disminuir uno tonoDisminuir uno semi-tono
LosAcordes
Buscar
auto avanzar rasgueos aumentar disminuir cambiar color esconder acordes gráficos
losacordes exhibir acordes losacordes youTube video losacordes ocultar tabs losacordes ir hacia arriba losacordes