Sie7e

Início > Sie7e > acordes

Tengo Tu Love Tablatura

Sie7e

Dificultad:ExpertoExperto

tercmoraes

tuner correct add songbook print version text version salvar en e-mail
acordesukuleletablaturabajobateríaarmónicaflautacavacopiano Guitar Pro
acordes

Tengo Tu Love

	  

Intro: 

e|-0h3p0-------------------------------------------------------| 
B|------0h3p0--------------------------------------------------| 
G|-----------0h2p0---------------------------------------------| 
D|----------------0h2p0----------------------------------------| 
A|-------------------------------------------------------------| 
E|-------------------------------------------------------------| 

   G                D 
e|-----x----------------x--------------------------------------| 
B|---3-x-3---3----0---3-x-3---3----0---------------------------| 
G|---0-x-0---0-0h2-0--2-x-2---2-0h2-0--------------------------| 
D|-----x------------0---x---0----------------------------------| 
A|-----x----------------x--------------------------------------| 
E|-3---x---3------------x--------------------------------------| 

   Em7              C 
e|-----x----------------x-----0-x------------------------------| 
B|---3-x-3---3----0---3-x-3---3-x-3----------------------------| 
G|---0-x-0---0-0h2-0--0-x-0---0-x-0----------------------------| 
D|-----x----------------x-------x------------------------------| 
A|-----x------------3---x---3---x------------------------------| 
E|-0---x---0------------x-------x------------------------------| 


Verse:
 
   G                D 
e|-----x-------x--------x-------x------------------------------| 
B|---3-x-3---3-x-3----3-x-3---3-x-3----------------------------| 
G|---0-x-0---0-x-0----2-x-2---2-x-2----------------------------| 
D|-----x-------x----0---x---0---x------------------------------| 
A|-----x-------x--------x-------x------------------------------| 
E|-3---x---3---x--------x-------x------------------------------| 

   Em               C 
e|-----x-------x--------x-------x------------------------------| 
B|---3-x-3---3-x-3----3-x-3---3-x-3----------------------------| 
G|---0-x-0---0-x-0----0-x-0---0-x-0----------------------------| 
D|-----x-------x--------x---0---x------------------------------| 
A|-----x-------x----3---x-------x------------------------------| 
E|-0---x---0---x--------x-------x------------------------------| 

 
	  

No existe una video leccione para esta canción

request
Aumentar uno tonoAumentar uno tono
Aumentar uno semi-tonoAumentar uno semi-tono
Disminuir uno semi-tonoDisminuir uno semi-tono
Disminuir uno tonoDisminuir uno semi-tono
LosAcordes
Buscar
auto avanzar rasgueos aumentar disminuir cambiar color esconder acordes gráficos
losacordes exhibir acordes losacordes youTube video losacordes ocultar tabs losacordes ir hacia arriba losacordes