Sharagan

Início > Sharagan > acordes

Der Voghormya-Armenian Prayer Tablatura

Sharagan

Dificultad:Ningún gradoNingún grado

Hayaser

tuner correct add songbook print version text version salvar en e-mail
acordesukuleletablaturabajobateríaarmónicaflautacavacopiano Guitar Pro
acordes

Der Voghormya-Armenian Prayer

	  Der Voghormya(Lord have mercy) Armenian Prayer 
Tabed by : Hayaser.net 
Tuning:EADGBe 
 
 
e|---------------------------------------------------------|  
B|---------------------------------------------------------|  
G|---2---------0---------2------0-------------0------2-----|  
D|--------------------------------------3------------------|  
A|---------------------------------------------------------|  
E|---------------------------------------------------------|  
 
e|---------------------------------------------------------|  
B|---------------------------------------------------------|  
G|--3------2---------0----------------------0--------------|  
D|-------------------------3----2----3-----------3---------|  
A|---------------------------------------------------------|  
E|---------------------------------------------------------|  
 
e|--------------------------------------------------------|  
B|--------------------------------------------------------|  
G|---0---------------------------------------2------------|  
D|--------3-----------2-------3---------------------------|  
A|--------------------------------------------------------|  
E|--------------------------------------------------------|  
 
e|--------------------------------------------------------|  
B|------------------------1-------------------------------|  
G|--0--------2-----3----------3------2------0--------2----|  
D|------------------------------------------------3-------|  
A|--------------------------------------------------------|  
E|--------------------------------------------------------|  
 
e|--------------------------------------------------------|  
B|--------------------------------------------------------|  
G|---0----------------------------------------------------|  
D|---------3-----2------0-----------0----2----------------|  
A|-----------------------------3--------------------------|  
E|--------------------------------------------------------|  
 
e|--------------------------------------------------------|  
B|--------------------------------------------------------|  
G|--------0-----------------------------------------------|  
D|---3-----------2-----------3------0---------------------|  
A|--------------------------------------------------------|  
E|--------------------------------------------------------|  
  
  
| /  slide up  
| \  slide down  
| h  hammer-on  
| p  pull-off  
| ~  vibrato  
| +  harmonic  
| x  Mute note  
========================================================  
 

	  

No existe una video leccione para esta canción

request
LosAcordes
Buscar
auto avanzar rasgueos aumentar disminuir cambiar color esconder acordes gráficos
losacordes exhibir acordes losacordes youTube video losacordes ocultar tabs losacordes ir hacia arriba losacordes