Sepultura

Início > Sepultura > acordes

Inner Self Tablatura

Sepultura

Dificultad:FácilFácil

tuner correct add songbook print version text version salvar en e-mail
acordesukuleletablaturabajobateriaarmónicaflautacavacopiano Guitar Pro
acordes

Inner Self

	   
  Intro 
        . . . . . . . . . . . . .       . . . . . . . . . . . . . 
e|--------------------------------|--------------------------------|  
B|--------------------------------|--------------------------------|  
G|--------------------------------|--------------------------------|  
D|--------------------------------|--------------------------------|   
A|-3-2-2-2-2-2-2-2-2-2-2-2-2-2-2--|-3-2-2-2-2-2-2-2-2-2-2-2-2-2-2--| 
E|-1-0-0-0-0-0-0-0-0-0-0-0-0-0-0--|-1-0-0-0-0-0-0-0-0-0-0-0-0-0-0--| 
        . . . . . . . . . . . . .       . . . . . . . . . . . . . 
e|--------------------------------|--------------------------------|  
B|--------------------------------|--------------------------------|  
G|--------------------------------|--------------------------------|  
D|--------------------------------|--------------------------------|   
A|-3-2-2-2-2-2-2-2-2-2-2-2-2-2-2--|-3-2-2-2-2-2-2-2-2-2-2-2-2-2-2--| 
E|-1-0-0-0-0-0-0-0-0-0-0-0-0-0-0--|-1-0-0-0-0-0-0-0-0-0-0-0-0-0-0--| 
 
 
 
 
 
     
 Riff 1 
       . . . . . . . . . . . . .         . . . . . . . . . . . .    
e|--------------------------------|--------------------------------|  
B|--------------------------------|--------------------------------|  
G|--------------------------------|--------------------------------|  
D|--------------------------------|-3------------------------------|   
A|-3-2-2-2-2-2-2-2-2-2-2-2-2-2-2--|---2---2-2-2-2-2-2-2-2-2-2-2-2--| 
E|-1-0-0-0-0-0-0-0-0-0-0-0-0-0-0--|-----1-0-0-0-0-0-0-0-0-0-0-0-0--| 
  
 Riff 1     
       . . . . . . . . . . . . .         . . . . . . . . . . . .    
e|--------------------------------|--------------------------------|  
B|--------------------------------|--------------------------------|  
G|--------------------------------|--------------------------------|  
D|--------------------------------|-3------------------------------|   
A|-3-2-2-2-2-2-2-2-2-2-2-2-2-2-2--|---2---2-2-2-2-2-2-2-2-2-2-2-2--| 
E|-1-0-0-0-0-0-0-0-0-0-0-0-0-0-0--|-----1-0-0-0-0-0-0-0-0-0-0-0-0--| 
 
 
 
 
 
   
  Riff 2                          . . .                           . . . 
e|--------------------------------|--------------------------------|  
B|--------------------------------|--------------------------------|  
G|--------------------------------|--------------------------------|  
D|--------------------------------|--------------------------------|   
A|-3-(2)--------------------2-2-2-|-3-(2)-------------------2-2-2--| 
E|-1-(0)--------------------0-0-0-|-1-(0)-------------------0-0-0--| 
 
  Riff 2                      . . .                           . . . 
e|--------------------------------|--------------------------------|  
B|--------------------------------|--------------------------------|  
G|--------------------------------|--------------------------------|  
D|--------------------------------|--------------------------------|   
A|-3-(2)--------------------2-2-2-|-3-(2)-------------------2-2-2--| 
E|-1-(0)--------------------0-0-0-|-1-(0)-------------------0-0-0--| 
 
 
 
 
 
   
  Riff 3 
   . . . . . . . . . . . . . . .    . . . . . . . . . . . . . . . 
e|--------------------------------|--------------------------------|  
B|--------------------------------|--------------------------------|  
G|--------------------------------|--------------------------------|  
D|--------------------------------|--------------------------------|   
A|-2-2-2-2-2-2-2-2-2-2-2-2-2-2-2--|-2-2-2-2-2-2-2-2-2-2-2-2-2-2-2--| 
E|-0-0-0-0-0-0-0-0-0-0-0-0-0-0-0--|-0-0-0-0-0-0-0-0-0-0-0-0-0-0-0--| 
   
 Riff 3 
  . . . . . . . . . . . . . . .    . . . . . . . . . . . . . . . 
e|--------------------------------|--------------------------------|  
B|--------------------------------|--------------------------------|  
G|--------------------------------|--------------------------------|  
D|--------------------------------|--------------------------------|   
A|-2-2-2-2-2-2-2-2-2-2-2-2-2-2-2--|-2-2-2-2-2-2-2-2-2-2-2-2-2-2-2--| 
E|-0-0-0-0-0-0-0-0-0-0-0-0-0-0-0--|-0-0-0-0-0-0-0-0-0-0-0-0-0-0-0--| 
 
 
 
 
 
 
  Riff 4 
         . . . . . . . . . . . .          . . . . . . . . . . . . 
e|--------------------------------|--------------------------------|  
B|--------------------------------|--------------------------------|  
G|--------------------------------|--------------------------------|  
D|--------------------------------|--------------------------------|   
A|-2-3-2-2-2-2-2-2-2-2-2-2-2-2-2--|-2-3-2-2-2-2-2-2-2-2-2-2-2-2-2--| 
E|-0-1-0-0-0-0-0-0-0-0-0-0-0-0-0--|-0-1-0-0-0-0-0-0-0-0-0-0-0-0-0--| 
      
 
  Riff 4   
         . . . . . . . . . . . .          . . . . . . . .     . . 
e|--------------------------------|--------------------------------|  
B|--------------------------------|--------------------------------|  
G|--------------------------------|--------------------------------|  
D|--------------------------------|--------------------------------|   
A|-2-3-2-2-2-2-2-2-2-2-2-2-2-2-2--|-2-3-2-2-2-2-2-2-2-2-2-3-2-2-2--| 
E|-0-1-0-0-0-0-0-0-0-0-0-0-0-0-0--|-0-1-0-0-0-0-0-0-0-0-0-1-0-0-0--| 
 
 
 
  Riff 4  
         . . . . . . . . . . . .          . . . . . . . . . . . . 
e|--------------------------------|--------------------------------|  
B|--------------------------------|--------------------------------|  
G|--------------------------------|--------------------------------|  
D|--------------------------------|--------------------------------|   
A|-2-3-2-2-2-2-2-2-2-2-2-2-2-2-2--|-2-3-2-2-2-2-2-2-2-2-2-2-2-2-2--| 
E|-0-1-0-0-0-0-0-0-0-0-0-0-0-0-0--|-0-1-0-0-0-0-0-0-0-0-0-0-0-0-0--| 
           Wlking these dirty streets,      With hate my mind   
 
 
  Riff 4  
      . . . . . . . . . . . .          . . . . . . . . . . . . 
e|--------------------------------|--------------------------------|  
B|--------------------------------|--------------------------------|  
G|--------------------------------|--------------------------------|  
D|--------------------------------|--------------------------------|   
A|-2-3-2-2-2-2-2-2-2-2-2-2-2-2-2--|-2-3-2-2-2-2-2-2-2-2-2-2-2-2-2--| 
E|-0-1-0-0-0-0-0-0-0-0-0-0-0-0-0--|-0-1-0-0-0-0-0-0-0-0-0-0-0-0-0--| 
       Feeling thw scorn of the world,    I won't follow your rules 
 
 
 
 
 
 
  Riff 5 
         . . . . . . . . . . . .          . . . . . . . . . . . . 
e|--------------------------------|--------------------------------|  
B|--------------------------------|--------------------------------|  
G|--------------------------------|--------------------------------|  
D|--------------------------------|--------------------------------|   
A|-6-5-6-6-6-6-6-6-6-6-6-6-6-6-6--|-6-5-6-6-6-6-6-6-6-5-5-5-5-5-5--| 
E|-4-4-4-4-4-4-4-4-4-4-4-4-4-4-4--|-4-4-4-4-4-4-4-4-4-3-3-3-3-3-3--| 
               Blame and lies,                  Contradictions arise 
 
  Riff 5 
       . . . . . . . . . . . .          . . . . . . . . . . . . 
e|--------------------------------|--------------------------------|  
B|--------------------------------|--------------------------------|  
G|--------------------------------|--------------------------------|  
D|--------------------------------|--------------------------------|   
A|-6-5-6-6-6-6-6-6-6-6-6-6-6-6-6--|-6-5-6-6-6-6-6-6-6-5-5-5-5-5-5--| 
E|-4-4-4-4-4-4-4-4-4-4-4-4-4-4-4--|-4-4-4-4-4-4-4-4-4-3-3-3-3-3-3--| 
            Blame and lies,                    Contradictions arise 
 
 
 
 
 
 
 Time (1:24) 
   . . . . . . . . . . . . . . . .      . . . . . . . . . . . . . . 
e|--------------------------------|--------------------------------|  
B|--------------------------------|--------------------------------|  
G|--------------------------------|--------------------------------|  
D|--------------------------------|--------------------------------|   
A|---------4-4-4-4---------4-4-4-4|-6\5-------------6\5------------| 
E|-4-3-1-3-2-2-2-2-4-3-1-3-2-2-2-2|-4\3-1-3-2-2-2-2-4\3-1-3-1-1-1-1| 
 
   . . . . . . . . . . . . . . . .      . . . . . . . . . . . . . . 
e|--------------------------------|--------------------------------|  
B|--------------------------------|--------------------------------|  
G|--------------------------------|--------------------------------|  
D|--------------------------------|--------------------------------|   
A|---------4-4-4-4---------4-4-4-4|-6\5-------------6\5------------| 
E|-4-3-1-3-2-2-2-2-4-3-1-3-2-2-2-2|-4\3-1-3-2-2-2-2-4\3-1-3-1-1-1-1| 
 
 
 
 
  
e|----------| 
B|----------|  
G|----------| 
D|----------|   
A|-22-2--2--| 
E|-00-0--0--| 
 
 
 Refrão 
      ..... ......  .............      ..... ......  ............. 
e|--------------------------------|--------------------------------|  
B|--------------------------------|--------------------------------|  
G|--------------------------------|--------------------------------|  
D|---------3333333-6666666--------|---------3333333-6666666--------|   
A|-2-2222221111111-44444442222222-|-2-2222221111111-44444442222222-| 
E|-0-000000---------------0000000-|-0-000000---------------0000000-| 
 
  ..... ......  .............      ..... ......  ............. 
e|--------------------------------|--------------------------------|  
B|--------------------------------|--------------------------------|  
G|--------------------------------|--------------------------------|  
D|---------3333333-6666666--------|---------3333333-6666666--------|   
A|-2-2222221111111-44444442222222-|-2-2222221111111-44444442222222-| 
E|-0-000000---------------0000000-|-0-000000---------------0000000-| 
     Nonconformity in my inner self,   I only guide my inner self 
 
 
 
 
 
 
  Andreas                          
e|---------------------------------|--------------------------------|  
B|---------------------------------|--------------------------------|  
G|---------------------------------|--------------------------------|  
D|-7P5------7P5-7P5-7P5------7P57P5|-6P4------6P4-6P4-6P4-----6P46P4|   
A|-5--8P57P55---5---5--8P57P55---5-|-4--7P46P44---4---4-7P46P44--4--| 
E|---------------------------------|--------------------------------| 
 
  Max 
e|---------------------------------|--------------------------------|  
B|---------------------------------|--------------------------------|  
G|---------------------------------|--------------------------------|  
D|-(7)-----------------------------|-(6)----------------------------|   
A|-(5)-----------------------------|-(4)----------------------------| 
E|---------------------------------|--------------------------------| 
 
 
e|-------------| 
B|-------------|  
G|-------------| 
D|-------------|   
A|-2--2--2--2--| 
E|-0--0--0--0--| 
 
 
 
 
 
 
 Riff 4 
         . . . . . . . . . . . .          . . . . . . . . . . . . 
e|--------------------------------|--------------------------------|  
B|--------------------------------|--------------------------------|  
G|--------------------------------|--------------------------------|  
D|--------------------------------|--------------------------------|   
A|-2-3-2-2-2-2-2-2-2-2-2-2-2-2-2--|-2-3-2-2-2-2-2-2-2-2-2-2-2-2-2--| 
E|-0-1-0-0-0-0-0-0-0-0-0-0-0-0-0--|-0-1-0-0-0-0-0-0-0-0-0-0-0-0-0--| 
           I wont change my way,          I have to be this way 
 
 Riff 4 
        . . . . . . . . . . . .          . . . . . . . .     . . 
e|--------------------------------|--------------------------------|  
B|--------------------------------|--------------------------------|  
G|--------------------------------|--------------------------------|  
D|--------------------------------|--------------------------------|   
A|-2-3-2-2-2-2-2-2-2-2-2-2-2-2-2--|-2-3-2-2-2-2-2-2-2-2-2-3-2-2-2--| 
E|-0-1-0-0-0-0-0-0-0-0-0-0-0-0-0--|-0-1-0-0-0-0-0-0-0-0-0-1-0-0-0--| 
        I live my life for my self,       Forget your filthy ways 
 
 
 
 
 
 
 Riff 5 
         . . . . . . . . . . . .          . . . . . . . . . . . . 
e|--------------------------------|--------------------------------|  
B|--------------------------------|--------------------------------|  
G|--------------------------------|--------------------------------|  
D|--------------------------------|--------------------------------|   
A|-6-5-6-6-6-6-6-6-6-6-6-6-6-6-6--|-6-5-6-6-6-6-6-6-6-5-5-5-5-5-5--| 
E|-4-4-4-4-4-4-4-4-4-4-4-4-4-4-4--|-4-4-4-4-4-4-4-4-4-3-3-3-3-3-3--| 
           Blame and lies,                   Contradictions arise 
 
 Riff 5 
       . . . . . . . . . . . .          . . . . . . . . . . . . 
e|--------------------------------|--------------------------------|  
B|--------------------------------|--------------------------------|  
G|--------------------------------|--------------------------------|  
D|--------------------------------|--------------------------------|   
A|-6-5-6-6-6-6-6-6-6-6-6-6-6-6-6--|-6-5-6-6-6-6-6-6-6-5-5-5-5-5-5--| 
E|-4-4-4-4-4-4-4-4-4-4-4-4-4-4-4--|-4-4-4-4-4-4-4-4-4-3-3-3-3-3-3--| 
         Blame and lies,                   Contradictions arise 
 
 
 
 
 
 
  Andreas 
e|------------------------------------|------------------------------------|  
B|------------------------------------|------------------------------------|  
G|----------------------------0-------|------------------------------0-----|  
D|-----(0)----------------0------0----|-----(0)------------------0------0--|   
A|---6------------------6-------------|---6-------------------6------------| 
E|-4------------------4---------------|-4-------------------4--------------| 
 
  Max 
e|------------------------------------|------------------------------------|  
B|------------------------------------|------------------------------------|  
G|------------------------------------|------------------------------------|  
D|------------------------------------|------------------------------------|   
A|-(6)---------------(6)--------------|-(6)------------------(6)-----------| 
E|-(4)---------------(4)--------------|-(4)------------------(4)-----------| 
 
 
 
 
 
  Andreas 
e|------------------------------------|------------------------------------|  
B|------------------------------------|------------------------------------|  
G|-------------------0--------0-------|--------------------0--------0------|  
D|-----(0)---------4---4----5---5-----|-----(0)----------4---4----5---5----|   
A|---6-----------2--------3-----------|---6------------2--------3----------| 
E|-4----------------------------------|-4----------------------------------| 
 
  Max 
e|------------------------------------|------------------------------------|  
B|------------------------------------|------------------------------------|  
G|------------------------------------|------------------------------------|  
D|--------------(4)-------(5)---------|---------------(4)-------(5)--------|   
A|-(6)----------(2)-------(3)---------|-(6)-----------(2)-------(3)--------| 
E|-(4)--------------------------------|-(4)--------------------------------| 
               Nobody will change my way,       Life betrays, but keep going 
 
 
  Andreas 
e|------------------------------------|------------------------------------|  
B|------------------------------------|------------------------------------|  
G|-------------------0--------0-------|-------------------0--------0-------|  
D|-----(0)---------4---4----5---5-----|-----(0)---------4---4----5---5-----|   
A|---6-----------2--------3-----------|---6-----------2--------3-----------| 
E|-4----------------------------------|-4----------------------------------| 
   
  Max 
   . . . . . . . . . . . . . . . . .    . . . . . . . . . . . . . . . . . 
e|------------------------------------|------------------------------------|  
B|------------------------------------|------------------------------------|  
G|------------------------------------|------------------------------------|  
D|---------------4-4-4-4-4-5-5-5-5-5--|---------------4-4-4-4-4-5-5-5-5-5--|   
A|-6-6-6-6-6-6-6-2-2-2-2-2-3-3-3-3-3--|-6-6-6-6-6-6-6-2-2-2-2-2-3-3-3-3-3--| 
E|-4-4-4-4-4-4-4----------------------|-4-4-4-4-4-4-4----------------------| 
                There's no light but there´s hope,    Crushing oppression 
 
 
 
 
 
 
 Interlude                           
e|--------------------------------| 
B|--------------------------------| 
G|--------------------------------| 
D|--------------------------------|   
A|-(2)----------------------------| 
E|-(0)----------------------------| 
        I win 
 
 
   . . . . . . . . . . . . . . . 
e|--------------------------------| 
B|--------------------------------| 
G|--------------------------------| 
D|--------------------------------|   
A|-2-2-2-2-2-2-2-2-2-2-2-2-2-2-2--| 
E|-0-0-0-0-0-0-0-0-0-0-0-0-0-0-0--| 
 
 
 
 
 
 
 Riff 6 
      . . . . . . .    . .            . . . . . . .   . . 
e|-------------------------------|-------------------------------|  
B|-------------------------------|-------------------------------|  
G|-------------------------------|-------------------------------|  
D|-------------------------------|-------------------------------|   
A|-5\4---------------5\4-----6-6-|-5\4---------------5\4-----6-6-| 
E|-3\2-0-0-0-0-0-0-0-3\2-0-0-4-4-|-3\2-0-0-0-0-0-0-0-3\2-0-0-4-4-| 
  
 Riff 6 
       . . . . . . .    . .            . . . . . . .    . . 
e|-------------------------------|-------------------------------|  
B|-------------------------------|-------------------------------|  
G|-------------------------------|-------------------------------|  
D|-------------------------------|-------------------------------|   
A|-5\4---------------5\4-----6-6-|-5\4---------------5\4-----6-6-| 
E|-3\2-0-0-0-0-0-0-0-3\2-0-0-4-4-|-3\2-0-0-0-0-0-0-0-3\2-0-0-4-4-| 
 
 
 
 
 
 
 Riff 7 
   . . . . . . . . . . . . . . .    . . . . . . . . . . . . . . . 
e|--------------------------------|--------------------------------|  
B|--------------------------------|--------------------------------|  
G|--------------------------------|--------------------------------|  
D|--------------------------------|--------------------------------|   
A|---------------------------8-8--|---------------------------8-8--| 
E|-0-0-0-0-0-0-0-0-0-0-0-0-0-6-6--|-0-0-0-0-0-0-0-0-0-0-0-0-0-6-6--| 
     Betraying and playing dirty,     You think you'll win 
 
 Riff 7 
   . . . . . . . . . . . . . . .    . . . . . . . . . . . . . . . 
e|--------------------------------|--------------------------------|  
B|--------------------------------|--------------------------------|  
G|--------------------------------|--------------------------------|  
D|--------------------------------|--------------------------------|   
A|---------------------------8-8--|---------------------------8-8--| 
E|-0-0-0-0-0-0-0-0-0-0-0-0-0-6-6--|-0-0-0-0-0-0-0-0-0-0-0-0-0-6-6--| 
     But someday you'll fall           And I'll be waiting 
 
 
 
 
 
 
 Riff 6 
      . . . . . . .    . .            . . . . . . .   . . 
e|-------------------------------|-------------------------------|  
B|-------------------------------|-------------------------------|  
G|-------------------------------|-------------------------------|  
D|-------------------------------|-------------------------------|   
A|-5\4---------------5\4-----6-6-|-5\4---------------5\4-----6-6-| 
E|-3\2-0-0-0-0-0-0-0-3\2-0-0-4-4-|-3\2-0-0-0-0-0-0-0-3\2-0-0-4-4-| 
  
 Riff 6 
      . . . . . . .    . .            . . . . . . .   . . 
e|-------------------------------|-------------------------------|  
B|-------------------------------|-------------------------------|  
G|-------------------------------|-------------------------------|  
D|-------------------------------|-------------------------------|   
A|-5\4---------------5\4-----6-6-|-5\4---------------5\4-----6-6-| 
E|-3\2-0-0-0-0-0-0-0-3\2-0-0-4-4-|-3\2-0-0-0-0-0-0-0-3\2-0-0-4-4-| 
 
 
 
 
 
 
 Riff 7 
   . . . . . . . . . . . . . . .    . . . . . . . . . . . . . . . 
e|--------------------------------|--------------------------------|  
B|--------------------------------|--------------------------------|  
G|--------------------------------|--------------------------------|  
D|--------------------------------|--------------------------------|   
A|---------------------------8-8--|---------------------------8-8--| 
E|-0-0-0-0-0-0-0-0-0-0-0-0-0-6-6--|-0-0-0-0-0-0-0-0-0-0-0-0-0-6-6--| 
     Laughs of an insane man,             You will hear 
 
 Riff 7 
   . . . . . . . . . . . . . . .    . . . . . . . . . . . . . . . 
e|--------------------------------|--------------------------------|  
B|--------------------------------|--------------------------------|  
G|--------------------------------|--------------------------------|  
D|--------------------------------|--------------------------------|   
A|---------------------------8-8--|---------------------------8-8--| 
E|-0-0-0-0-0-0-0-0-0-0-0-0-0-6-6--|-0-0-0-0-0-0-0-0-0-0-0-0-0-6-6--| 
      Personality is my weapon,           Against you envy 
 
 
 
 
 
 
 Riff 8 
 Time (3:16) 
       . .     . .     . .             . .     . .     . .  
e|-------------------------------|-------------------------------|  
B|-------------------------------|-------------------------------|  
G|-------------------------------|-------------------------------|  
D|-------------------------------|-------------------------------|   
A|-5\4-----5\4-----5\4-----6--6--|-5\4-----5\4-----5\4-----6--6--| 
E|-3\2-0-0-3\2-0-0-3\2-0-0-4--4--|-3\2-0-0-3\2-0-0-3\2-0-0-4--4--| 
 
 
 
 Solo Intro:   Max 
       . .     . .     . .             . .     . .     . .  
e|-------------------------------|-------------------------------|  
B|-------------------------------|-------------------------------|  
G|-------------------------------|-------------------------------|  
D|-------------------------------|-------------------------------|   
A|-5\3-----5\3-----5\3-----6--6--|-5\3-----5\3-----5\3-----6--6--| 
E|-3\1-0-0-3\1-0-0-3\1-0-0-4--4--|-3\1-0-0-3\1-0-0-3\1-0-0-4--4--| 
 
 Solo Intro:   Andreas 
e|-------------------------------|-----------18p15----18p15------21~21~21\|    
B|-------------------------------|-17p14----------17p14----17p14-20~20~20\|    
G|--------------------15p12------|------15p12-----------------------------|  
D|----------14p11----------14p11-|----------------------------------------|     
A|-13p10---------13p10-----------|----------------------------------------| 
E|------12p9---------------------|----------------------------------------| 
 
 
 
 
 
                
                . 
Solo / Max usa (F5#) como base do solo. Essa parte é muito rapida 
 Time (3:23) 
 
    MAX 
  .  .  .  .  .  .  .  .  .  .    .  .  .  .  .  .  .  .  .  .  .  .  .  . 
  F5#F5#F5#F5#F5#F5#F5#F5#F5#F5#  F5#F5#F5#F5#F5#F5#F5#F5#F5#F5#F5#F5#F5#F5# 
   
   Andreas 
e|------20--19--15h17p15---------|------------------------------------------|  
B|-/19~~--19--19--------19-17-16~|19p17p16-17-19p17p16-17-19p17p16----------|  
G|-------------------------------|---------------------------------1716-14~\|  
D|-------------------------------|------------------------------------------|   
A|-------------------------------|------------------------------------------| 
E|-------------------------------|------------------------------------------| 
 
 
    MAX 
  .  .  .  .  .  .  .  .  .  .    .  .  .  .  .  .  .  .   
  F5#F5#F5#F5#F5#F5#F5#F5#F5#F5#  F5#F5#F5#F5#F5#F5#F5#F5 
   
   Andreas 
e|---------------------------|--------------20~20~20\---|  
B|-12/17\12/17\12/17\12/17\--|-12/17\12/17\-19~19~19\---|  
G|---------------------------|--------------------------|  
D|---------------------------|--------------------------|   
A|---------------------------|--------------------------| 
E|---------------------------|--------------------------| 
 
 
 
 
 
 
 
  Max 
   (C5) 
 
  Andreas 
   T            T            T            T 
e|-12P8P7P5P0H5-12P8P7P5P0H5-12P8P7P5P0H5-12P8P7P5P0H5-|  
B|-----------------------------------------------------|  
G|-----------------------------------------------------|  
D|-----------------------------------------------------|   
A|-----------------------------------------------------| 
E|-----------------------------------------------------| 
 
  Max 
   (B5) 
 
  Andreas 
   T            T            T            T 
e|-13P8P7P5P0H5-13P8P7P5P0H5-13P8P7P5P0H5-13P8P7P5P0H5-|  
B|-----------------------------------------------------|  
G|-----------------------------------------------------|  
D|-----------------------------------------------------|   
A|-----------------------------------------------------| 
E|-----------------------------------------------------| 
 
 
  Max 
   (E5) 
 
  Andreas 
   T            T            T            T                         
e|-----------------------------------------------------|  
B|-12p8p7p5p0H5-12p8p7p5p0H5-12p8p7p5p0H5-12p8p7p5p0H5-|  
G|-----------------------------------------------------|  
D|-----------------------------------------------------|   
A|-----------------------------------------------------| 
E|-----------------------------------------------------| 
 
 
  Max 
   (A5#) 
 
  Andreas 
   T            T            T            T                         
e|-----------------------------------------------------|  
B|-11p8p7p5p0H5-11p8p7p5p0H5-11p8p7p5p0H5-11p8p7p5p0H5-|  
G|-----------------------------------------------------| End Solo 
D|-----------------------------------------------------|   
A|-----------------------------------------------------| 
E|-----------------------------------------------------| 
 
 
 
 
 
 Riff 9                                  . . . . . . . . . . . . .   
e|--------------------------------|--------------------------------|  
B|--------------------------------|--------------------------------|  
G|--------------------------------|--------------------------------|  
D|---------------------------3-3/4|---------------------------3-3/4|   
A|-(2)-----------------------1-1/2|-(2)-----------------------1-1/2| 
E|-(0)----------------------------|-(0)----------------------------| 
 
                                    . . . . . . . . . . . . .   
e|--------------------------------|--------------------------------|  
B|--------------------------------|--------------------------------|  
G|--------------------------------|--------------------------------|  
D|---------------------------3-3/4|---------------------------3-3/4|   
A|-(2)-----------------------1-1/2|-(2)-----------------------1-1/2| 
E|-(0)----------------------------|-(0)----------------------------| 
  
    ......................            ..................... 
e|--------------------------------|--------------------------------|  
B|--------------------------------|--------------------------------|  
G|--------------------------------|--------------------------------|  
D|-------------------------3-3-3/4|-------------------------3-3-3/4|   
A|-22222222222222222222222-1-1-1/2|-22222222222222222222222-1-1-1/2| 
E|-00000000000000000000000--------|-00000000000000000000000--------| 
 
    ......................            ..................... 
e|--------------------------------|--------------------------------|  
B|--------------------------------|--------------------------------|  
G|--------------------------------|--------------------------------|  
D|-------------------------3-3-3/4|-------------------------3-3-3/4|   
A|-22222222222222222222222-1-1-1/2|-22222222222222222222222-1-1-1/2| 
E|-00000000000000000000000--------|-00000000000000000000000--------| 
 
e|--------| 
B|--------|  
G|--------| 
D|--------|   
A|-22-----| 
E|-00-----| 
 
 
    ......................            ..................... 
e|--------------------------------|--------------------------------|  
B|--------------------------------|--------------------------------|  
G|--------------------------------|--------------------------------|  
D|-------------------------3-3-3/4|-------------------------3-3-3/4|   
A|-22222222222222222222222-1-1-1/2|-22222222222222222222222-1-1-1/2| 
E|-00000000000000000000000--------|-00000000000000000000000--------| 
  Wlking these dirty streets,         With hate my mind   
 
    ......................            ..................... 
e|--------------------------------|--------------------------------|  
B|--------------------------------|--------------------------------|  
G|--------------------------------|--------------------------------|  
D|-------------------------3-3-3/4|-------------------------3-3-3/4|   
A|-22222222222222222222222-1-1-1/2|-22222222222222222222222-1-1-1/2| 
E|-00000000000000000000000--------|-00000000000000000000000--------| 
   Feeling thw scorn of the world,   I won't follow your rules 
 
 
 
 
 
 
    .............................   .............................. 
e|--------------------------------|--------------------------------|  
B|--------------------------------|--------------------------------|  
G|--------------------------------|--------------------------------|  
D|--------------------------------|--------------------------------|   
A|--------------------------------|--------------------------------| 
E|-222222225322225322225322211111-|-222222225322225322225322211111-| 
 
    .............................   .............................. 
e|--------------------------------|--------------------------------|  
B|--------------------------------|--------------------------------|  
G|--------------------------------|--------------------------------|  
D|--------------------------------|--------------------------------|   
A|--------------------------------|--------------------------------| 
E|-222222225322225322225322211111-|-222222225322225322225322211111-| 
 
 
 
 
 
 
   . . . . . . . . . . . . . . . .      . . . . . . . . . . . . . . 
e|--------------------------------|--------------------------------|  
B|--------------------------------|--------------------------------|  
G|--------------------------------|--------------------------------|  
D|--------------------------------|--------------------------------|   
A|---------4-4-4-4---------4-4-4-4|-6\5-------------6\5------------| 
E|-4-3-1-3-2-2-2-2-4-3-1-3-2-2-2-2|-4\3-1-3-2-2-2-2-4\3-1-3-1-1-1-1| 
 
   . . . . . . . . . . . . . . . .      . . . . . . . . . . . . . . 
e|--------------------------------|--------------------------------|  
B|--------------------------------|--------------------------------|  
G|--------------------------------|--------------------------------|  
D|--------------------------------|--------------------------------|   
A|---------4-4-4-4---------4-4-4-4|-6\5-------------6\5------------| 
E|-4-3-1-3-2-2-2-2-4-3-1-3-2-2-2-2|-4\3-1-3-2-2-2-2-4\3-1-3-1-1-1-1| 
 
 
 
 
 
 
 Refrão 
      ..... ......  .............      ..... ......  ............. 
e|--------------------------------|--------------------------------|  
B|--------------------------------|--------------------------------|  
G|--------------------------------|--------------------------------|  
D|---------3333333-6666666--------|---------3333333-6666666--------|   
A|-2-2222221111111-44444442222222-|-2-2222221111111-44444442222222-| 
E|-0-000000---------------0000000-|-0-000000---------------0000000-| 
 
  ..... ......  .............      ..... ......  ............. 
e|--------------------------------|--------------------------------|  
B|--------------------------------|--------------------------------|  
G|--------------------------------|--------------------------------|  
D|---------3333333-6666666--------|---------3333333-6666666--------|   
A|-2-2222221111111-44444442222222-|-2-2222221111111-44444442222222-| 
E|-0-000000---------------0000000-|-0-000000---------------0000000-| 
     Nonconformity in my inner self,   I only guide my inner self 
 
 
 
 
 
        . . .....       . . .....         . . ..... .... .... .... 
e|--------------------------------|--------------------------------|  
B|--------------------------------|--------------------------------|  
G|--------------------------------|--------------------------------|  
D|--------------------------------|--------------------------------|   
A|-4-4----7-77777-4-4----7-77777--|-4-4----7-77777-2222-2222-2222--| 
E|-2-2--0-5-55555-2-2--0-5-55555--|-2-2--0-5-55555-0000-0000-0000--| 
 
       . . .....       . . .....         . . ..... .... .... .... 
e|--------------------------------|--------------------------------|  
B|--------------------------------|--------------------------------|  
G|--------------------------------|--------------------------------|  
D|--------------------------------|--------------------------------|   
A|-4-4----7-77777-4-4----7-77777--|-4-4----7-77777-2222-2222-2222--| 
E|-2-2--0-5-55555-2-2--0-5-55555--|-2-2--0-5-55555-0000-0000-0000--| 
 
  ..... .... . . . . .. 
e|--------------------------------|  
B|--------------------------------|  
G|--------------------------------|  
D|--------------------------------|   End part 
A|-2222-2222-2-2-2--2-22----------| 
E|-0000-0000-0-0-0--0-00----------| 
 
 
 
 
 
_______________________________________________ 
 
 
 
 ..  - palm mute          /  - slide up to 
 \  - slide down to      ~  - vibrato 
 h  - hammer on          b  - bend 
 p  - pull off       
 
 
_______________________________________________________ 
Contribuição: Diego Martins Mota([email protected]) 

	  

No existe una video leccione para esta canción

request
LosAcordes
Buscar
auto avanzar rasgueos aumentar disminuir cambiar color esconder acordes gráficos
losacordes exhibir acordes losacordes youTube video losacordes ocultar tabs losacordes ir hacia arriba losacordes