Roupa Nova

Início > Roupa Nova > acordes

Dona (solo acústico) Tablatura

Roupa Nova

Dificultad:PrincipiantePrincipiante

karollmoure

tuner correct add songbook print version text version salvar en e-mail
acordesukuleletablaturabajobateríaarmónicaflautacavacopiano Guitar Pro
acordes

Dona (solo acústico)

	  Este solo é do início da música Dona na versão do CD acústico. 
O solo é feito em um baixo, porém pode ser tocado nas 4 cordas 
mais grossas do violão. 
 
 
G|------5\4-2-0---0h2------------------------------| 
D|-2--2---------2--------555-4-2/4-4--0----0h2-----| 
A|---------------------------------------2---------| 
E|--------------------3-------------------------3--| 
 
G|--------------------------------------| 
D|-7\5-2-5--2-4-2p0-2----2p0---0--------| 
A|---------------------2-----2----2-----| 
E|-----------------------------------3--| 
 
 
Por: Karoll Moure 
[email protected] 
 

	  

No existe una video leccione para esta canción

request
LosAcordes
Buscar
auto avanzar rasgueos aumentar disminuir cambiar color esconder acordes gráficos
losacordes exhibir acordes losacordes youTube video losacordes ocultar tabs losacordes ir hacia arriba losacordes