Rodrigo y Gabriela

Início > Rodrigo y ... > acordes

Megalopolis Tablatura

Rodrigo y Gabriela

Dificultad:Ningún gradoNingún grado

ubirbomfim

tuner correct add songbook print version text version salvar en e-mail
acordesukuleletablaturabajobateríaarmónicaflautacavacopiano Guitar Pro
acordes

Megalopolis

	  

||-----------------|----------------|-----------------|----------------|| 
||-----6-----6-----|-----6-----6----|-----6-----6-----|-----6-----6----|| 
|*-----------------|----------------|-----------------|----------------*| 
|*---7-----7-----7-|---7-----7------|---7-----7-----7-|---7-----7------*| 
||-5-----5-----5---|-5-----5-----5--|-----------------|----------------|| 
||-----------------|----------------|-6-----6-----6---|-6-----6-----6--|| 

|--------------------|------------------|---------------------|------------------| 
|------9------9------|------9------9----|------9------9-------|------9------9----| 
|--------------------|------------------|---------------------|------------------| 
|---10-----10-----10-|---10-----10------|---10-----10-----10--|---10-----10------| 
|-8------8------8----|-8------8------8--|---------------------|------------------| 
|--------------------|------------------|-9------9------9-----|-9------9------9--| 

|-----------------|----------------|---------------------|------------------| 
|-----8-----8-----|-----8-----8----|------8------8-------|------8------8----| 
|-----------------|----------------|---------------------|------------------| 
|---9-----9-----9-|---9-----9------|---10-----10-----10--|---10-----10------| 
|-----------------|----------------|---------------------|------------------| 
|-7-----7-----7---|-7-----7-----7--|-8------8------8-----|-8------8------8--| 

|----------|--------------|----------|--------------|----------|-----------|------------------| 
|----------|--------------|----------|--------------|----------|-----------|------------------| 
|----------|--------------|----------|--------------|----------|-----------|------------------| 
|----------|-2-3----------|----------|-2-3----------|-3--------|-----------|------------------| 
|-5--------|------1-------|-5--------|------1-------|----------|-3--4------|-2--------2--3----| 
|----------|------------5-|----------|--------------|----------|-----------|------3-----------|  

||-----------------|----------------|-----------------|----------------||                                   
||-----6-----6-----|-----6-----6----|-----6-----6-----|-----6-----6----||                                   
|*-----------------|----------------|-----------------|----------------*|                                   
|*---7-----7-----7-|---7-----7------|---7-----7-----7-|---7-----7------*|                                   
||-5-----5-----5---|-5-----5-----5--|-----------------|----------------||                                   
||-----------------|----------------|-6-----6-----6---|-6-----6-----6--||                                   
                                                                                                           
|--------------------|------------------|---------------------|------------------| 
|------9------9------|------9------9----|------9------9-------|------9------9----| 
|--------------------|------------------|---------------------|------------------| 
|---10-----10-----10-|---10-----10------|---10-----10-----10--|---10-----10------| 
|-8------8------8----|-8------8------8--|---------------------|------------------| 
|--------------------|------------------|-9------9------9-----|-9------9------9--| 

|-----------------|----------------|---------------------|------------------| 
|-----8-----8-----|-----8-----8----|------8------8-------|------8------8----| 
|-----------------|----------------|---------------------|------------------| 
|---9-----9-----9-|---9-----9------|---10-----10-----10--|---10-----10------| 
|-----------------|----------------|---------------------|------------------| 
|-7-----7-----7---|-7-----7-----7--|-8------8------8-----|-8------8------8--| 

|-----------------------------------|-----------------------------------|  
|-10--------------------------------|-10--------------------------------|  
|-------10-9h10p9-------9-10-12-----|-------10-9h10p9-------12-10-9-----|  
|-------------------12--------------|-------------------12--------------|  
|-----------------------------------|-----------------------------------|  
|-----------------------------------|-----------------------------------| 

|-----------8---------------------------|-------3---------------| 
|------8-10------9-8h9p8----9-----------|-----------6--5-6-8----| 
|-9-10------------------------10-8-6----|-4---4-----------------| 
|---------------------------------------|-----------------------| 
|---------------------------------------|-----------------------| 
|---------------------------------------|-----------------------| 

|-------------------|-------------------|------------------|------------------| 
|-------------------|-------------------|------------------|------------------| 
|-------------------|-------------------|-----1-----1------|-----1-----1------| 
|-----5------5------|-----5------5------|------------------|------------------| 
|---4------4------4-|---4------4------4-|---3-----3-----3--|---3-----3-----3--| 
|-6------6------6---|-6------6------6---|-1-----1-----1----|-1-----1-----1----| 

|-------------------|--------------------|------------------|------------------| 
|-------------------|--------------------|------------------|------------------| 
|-------------------|--------------------|-----1-----1------|-----1-----1------| 
|-----5------5------|-----2------2-------|------------------|------------------| 
|---4------4------4-|---1------1------1--|---3-----3-----3--|---3-----3-----3--| 
|-6------6------6---|-3------3------3----|-1-----1-----1----|-1-----1-----1----| 

|-------------------|-------------------|------------------|------------------|  
|-------------------|-------------------|------------------|------------------|  
|-------------------|-------------------|-----1-----1------|-----1-----1------|  
|-----5------5------|-----5------5------|------------------|------------------|  
|---4------4------4-|---4------4------4-|---3-----3-----3--|---3-----3-----3--|  
|-6------6------6---|-6------6------6---|-1-----1-----1----|-1-----1-----1----|  
                                                                                 
|-------------------|--------------------|-------------------|------------------| 
|-------------------|--------------------|-------------------|------------------| 
|-------------------|--------------------|-----1-----0-------|------------------| 
|-----5------5------|-----8------8-------|-----------------1-|-----3-----3------| 
|---4------4------4-|---7------7------7--|---3-----3-----3---|---3-----3--------| 
|-6------6------6---|-9------9------9----|-1-----1-----1-----|-1-----1----------| 

|--------------------------6-7-6-------------------------|-----16/14-----14/11----11/14----14/11---11/9----| 
|---------------------7/9--------7/9---------------------|-------------------------------------------------| 
|-----------------6/8----------------8-8/6--6-6/8--8-8---|-13---------11--------8-------11-------8------6--| 
|---------4---4-6----------------------------------------|-------------------------------------------------| 
|-----4-6---6--------------------------------------------|-------------------------------------------------| 
|-4-7----------------------------------------------------|-------------------------------------------------| 
                                                           
|----------------|----------------|--------------------|--------------------------------| 
|----------------|----------------|--------------------|---12-10----------10------------| 
|-8-8-8-8-6------|-6-6-6-6-4-3----|-------------4-4-4--|----------11-9-11----11-9-7h9-7-| 
|-----------9-9--|-------------6--|-4-4-4-6-6-6--------|-9------------------------------| 
|----------------|----------------|--------------------|--------------------------------| 
|----------------|----------------|--------------------|--------------------------------| 
                                                           
|----------------------------------------|-------------14----| 
|----------------------------------------|-------------------| 
|----7-7/10--6-7--4-6--3-4----4p3--------|-11-11h12p11-------| 
|--9------------------------4-----5-4----|-------------------| 
|----------------------------------------|-------------------| 
|----------------------------------------|-------------------| 

|-----------------|----------------|-----------------|-----------------| 
|-----------------|----------------|-----3-----3-----|-----3-----3-----| 
|-----6-----6-----|-----6-----6----|-----------------|-----------------| 
|---5-----5-----5-|---5-----5------|---4-----4-----4-|---4-----4-------| 
|-7-----7-----7---|-7-----7-----7--|-2-----2-----2---|-2-----2-----2---| 
|-----------------|----------------|-----------------|-----------------| 
                                                           
|-----------------|----------------|-----------------|-----------------| 
|-----------------|----------------|-----3-----3-----|-----3-----3-----| 
|-----6-----6-----|-----3-----3----|-----------------|-----------------| 
|---5-----5-----5-|---2-----2------|---4-----4-----4-|---4-----4-------| 
|-7-----7-----7---|-4-----4-----4--|-2-----2-----2---|-2-----2-----2---| 
|-----------------|----------------|-----------------|-----------------| 

|-----------------|----------------|-----------------|-----------------| 
|-----------------|----------------|-----3-----3-----|-----3-----3-----| 
|-----6-----6-----|-----6-----6----|-----------------|-----------------| 
|---5-----5-----5-|---5-----5------|---4-----4-----4-|---4-----4-------| 
|-7-----7-----7---|-7-----7-----7--|-2-----2-----2---|-2-----2-----2---| 
|-----------------|----------------|-----------------|-----------------| 

|-----------------|----------------|---------------------9/10-10/12-12----| 
|-----------------|----------------|-----------------7/8------------------| 
|-----6-----6-----|-----9-----9----|---------4-6-7/9----------------------| 
|---5-----5-----5-|---8-----8------|-------4------------------------------| 
|-7-----7-----7---|-10---10----10--|---4-5--------------------------------| 
|-----------------|----------------|-7------------------------------------| 

|-----------------------------------|-----------------------------------|  
|-10--------------------------------|-10--------------------------------|  
|-------10-9h10p9-------9-10-12-----|-------10-9h10p9-------12-10-9-----|  
|-------------------12--------------|-------------------12--------------|  
|-----------------------------------|-----------------------------------|  
|-----------------------------------|-----------------------------------| 

|-----------8---------------------------|-------3---------------| 
|------8-10------9-8h9p8----9-----------|-----------6--5-6-8----| 
|-9-10------------------------10-8-6----|-4---4-----------------| 
|---------------------------------------|-----------------------| 
|---------------------------------------|-----------------------| 
|---------------------------------------|-----------------------| 

|--------------------------------------|-----------------------------------|  
|-10-----------------------------10br--|-10--------------------------------|  
|-------10-9h10p9-------9-10-12--------|-------10-9h10p9-------12-10-9-----|  
|-------------------12-----------------|-------------------12--------------|  
|--------------------------------------|-----------------------------------|  
|--------------------------------------|-----------------------------------| 

|---------------------8---------------------------|-------3------------------------------| 
|-----------8-8-10-10------9-8h9p8----9-----------|-----------6-6p5----------------------| 
|-9-9-10-10-----------------------------10-8-6----|-4---4-----------6p5--5/3--3/1-1p0--0-| 
|-------------------------------------------------|--------------------------------------| 
|-------------------------------------------------|--------------------------------------| 
|-------------------------------------------------|--------------------------------------| 

||--------------------------|-------------------------|--------------------------|-------------------------| 
||--------------------------|-------------------------|--------------------------|-------------------------| 
|*--------------------------|-------------------------|--------------------------|-------------------------| 
|*-------7------------------|-------7-----------------|-------7------------------|-------7-----------------| 
||---8-------8---10---------|---8-------8---10---8----|---8-------8---10---------|---8-------8---10---8----| 
||-x---x---x---x----x--8h10-|-x---x---x---x----x------|-x---x---x---x----x--8h10-|-x---x---x---x----x------| 

|------------------------|------------------------|------------------------|------------------------| 
|------------------------|------------------------|------------------------|------------------------| 
|-------5----------------|-------5----------------|-------5----------------|-------5----------------| 
|---6-------6---8--------|---6-------6---8---6----|---6-------6---8--------|---6-------6---8---6----| 
|-------------------6h8--|------------------------|-------------------6h8--|------------------------| 
|-x---x---x---x---x------|-x---x---x---x---x------|-x---x---x---x---x------|-x---x---x---x---x------| 

|--------------------------|--------------------------|| 
|--------------------------|--------------------------|| 
|--------------------------|--------------------------*| 
|-5-5-5-5--5-5-5-5--5-5-5--|-5-5-5-5--5-5-5-5--5-5-5--*| 
|-2-2-2-2--2-2-2-2--2-2-2--|-2-2-2-2--2-2-2-2--2-2-2--|| 
|--------------------------|--------------------------|| 
	  

No existe una video leccione para esta canción

request
LosAcordes
Buscar
auto avanzar rasgueos aumentar disminuir cambiar color esconder acordes gráficos
losacordes exhibir acordes losacordes youTube video losacordes ocultar tabs losacordes ir hacia arriba losacordes