Ricky Skaggs

Início > Ricky Skag... > acordes

Highway 40 Blues Tablatura

Ricky Skaggs

Dificultad:Ningún gradoNingún grado

tamamoreira

tuner correct add songbook print version text version salvar en e-mail
acordesukuleletablaturabajobateríaarmónicaflautacavacopiano Guitar Pro
acordes

Highway 40 Blues

Áño: 2000 - Álbum: 16 Biggest Hits

	  
------------------------------------------------------------------------------| 
---------------------------------7/5-----------4/2----------------------------| 
--7b(9)----7-4-4----9b(11)-----8-----6-------4-----2-----4---2-4b(6)-4--------| 
-----------------------------9---------7---6---------4-----4------------------| 
------------------------------------------------------------------------------| 
------------------------------------------------------------------------------| 


------------------------------------------------------------------------------| 
------------------------------------------------------------------------------| 
-1-----2-1h2p1---1------------------------------------------------------------| 
---2/4---------4---2/4-0------------------------------------------------------| 
-------------------------4/2---4p2p0---0---4p2p0---0-4p2p0--------------------| 
-----------------------------0-------4-----------4---------2b(4)r(2)----------| 


-------------------------------------------------------------------------------| 
-------------------------------------------------------------------------------| 
-2h4---2-4b(6)--4-2-1h2p1---1-----2---3------4-----6-----8------9-------11-----| 
-----2--------------------4---2/4---5----5/6---6-7---7/9---9-11---11/13--------| 
-------------------------------------------------------------------------------| 
-------------------------------------------------------------------------------| 


---------------------------------14-------17b(19)-17--------------------------| 
------------------------------------17/19-------------------------------------| 
-------13-------14----14-16b(18)----------------------------------------------| 
-13-14----14/16----16---------------------------------------------------------| 
------------------------------------------------------------------------------| 
------------------------------------------------------------------------------| 


************************************ 
| /  Slide up 
| h  Hammer-on 
| p  Pull-off   
************************************ 
	  

No existe una video leccione para esta canción

request
LosAcordes
Buscar
auto avanzar rasgueos aumentar disminuir cambiar color esconder acordes gráficos
losacordes exhibir acordes losacordes youTube video losacordes ocultar tabs losacordes ir hacia arriba losacordes