Ricky Martin

Início > Ricky Mart... > acordes

Tu recuerdo (ft Lamari ) Tablatura

Ricky Martin

Dificultad:FácilFácil

sandritax

tuner correct add songbook print version text version salvar en e-mail
acordesukuleletablaturabajobateríaarmónicaflautacavacopiano Guitar Pro
acordes

Tu recuerdo (ft Lamari )

	  INTRO: 
E-------------|---------------------|-------------| 
A-------------|---------------------|-------------| 
D-10----11----|--------------10-----|---10-9------|  X2 
G-9-----10----|-9-------8-------8---|-8-----------| 
B----8-----11-|-8/9/8-----9-------9-|-------------| 
E-------------|---------------------|-------------| 

C#m    B             F#m 
Tú recuerdo sigue aquí 
     G#m          C#m    B           F#m 
como un aguacero rompe fuerte sobre mí, 
     G#m            C#m    B          F#m 
pero a fuego lento quema y moja por igual, 
     G#m             C#m         B 
y ya no sé lo que pensar 
                  B---11--11--11/10-|-10-10/8--8--| 
                  E---10--10--10/8--|-8---8/6--6--| 
  F#m                   G#m              C#m 
Si tu recuerdo me hace bien o me hace mal. 

E----------------|-------------|--14/3-------| 
A----------------|-------------|-------------| 
D----------------|-------------|-------------| 
G--12------10----|--8----------|-------------| 
B----------------|-------------|-------------| 
E-----11------10-|-----8-------|-------------| 

C#m            B 
Un beso gris, un beso blanco, 
F#m                G#m 
Todo depende del lugar. 
C#m             B 
Que yo me fui, eso esta claro 
F#m                G#m 
Pero tú recuerdo no se va. 
C#m                       B 
Siento tus labios en las noches de verano 
F#m            G#m             C#m 
Ahí están, cuidándome en mi soledad 
                                         B 
                              B-1-2-3----------| 
                              E-------3-(12)---| 
F#m                 G#m 
Pero a veces me quieren matar. 


C#m    B             F#m 
Tú recuerdo sigue aquí 
     G#m          C#m    B           F#m 
como un aguacero rompe fuerte sobre mí, 
     G#m            C#m     B          F#m 
pero a fuego lento quema y moja por igual, 
     G#m             C#m         B 
y ya no sé lo que pensar 
                  B---11--11--11/10-|-10-10/8--8--| 
                  E---10--10--10/8--|-8---8/6--6--| 
  F#m                   G#m             C#m 
Si tu recuerdo me hace bien o me hace mal. 

B--13-------------|----------------|--12--------| 
E-----15-13-15-13-|-11-10-13-11-10-|-----10-8---| 

C#m           B 
A veces gris, a veces blanco 
F#m               G#m 
Todo depende del lugar. 
C#m              B 
Que tu te fuiste, eso es pasado 
F#m                G#m 
Sé que te tengo que olvidar. 
C#m                    B 
Pero yo le puse una velita a to´s mis santos 
F#m         G#m                     C#m   B 
Ahí están, pa´ que pienses mucho en mí, 
 F#m                 G#m 
No dejes de pensar en mí. 


C#m    B             F#m 
Tú recuerdo sigue aquí 
     G#m          C#m    B           F#m 
como un aguacero rompe fuerte sobre mí, 
     G#m            C#m     B          F#m 
pero a fuego lento quema y moja por igual, 
     G#m             C#m         B 
y ya no sé lo que pensar 
                  B---11--11--11/10-|-10-10/8--8--| 
                  E---10--10--10/8--|-8---8/6--6--| 
  F#m                   G#m             C#m 
Si tu recuerdo me hace bien o me hace mal. 

C#m       B    F#m            G#m 
piensa en mí, es antídoto y veneno al corazón 
C#m      B      F#m        G#m 
te hace bien, quema y moja, que viene y va 
C#m           B     F#m               G#m            C#m 
¿Tu donde estas?, Atrapado entre los versos y el adiós. 


SOLO: 

Los números que están encerrados con <> 
se tocan rápido muchas veces 

 C#m              B      F#m          G#m              C#m 
E---------------------|-------------|--------------|------------| 
A---------------------|-------------|--------------|------------| 
D-10-12---------------|-10----------|--------------|------------| 
G-------10-12-10-<12>-|----13-10-13-|-10-12-10/7-7-|------------| 
B---------------------|-------------|--------------|13----------| 
E---------------------|-------------|--------------|---15-13-15-| 

           B      F#m              G#m       C#m            B 
E-------------|-------------------------|----------------------| 
A-------------|-------------------------|----------------------| 
D-------------|-------------------------|----------------------| 
G-------------|-------------------------|----------------------| 
B----------13-|-13----------------------|--18-----16-----13----| 
E-13-15-11----|----16-15-13-16-13-<15>--|----<20>---<18>---<15>| 

  F#m                          G#m                           C#m 
E----------------|---------------|---------------|--------------| 
A----------------|---------------|---------------|--------------| 
D----------------|---------------|---------------|--------------| 
G-17------17-----|17-------17----|15-------15----|15--------15--| 
B----------------|---------------|---------------|--------------| 
E--17/15---17/15-|-17/15----17/15|-15/13----15/13|--15/13-----15| 
         B                   F#m                G#m 
E------------|---------------|--------------|-------------------| 
A------------|---------------|--------------|-------------------| 
D------------|---------------|--------------|----------------13-| 
G-13----10---|------------10-|-12--14-14/15-|-14-12-10-12-10----| 
B------------|-------13------|--------------|-------------------| 
E---13----10-|-11-10---------|--------------|-------------------| 

E------------------------| 
A------------------------| 
D--10-12-----------------| 
G--------10-11-12--------| 
B----------------9-10-11-| 
E------------------------| 

C#     B            F#           G# 
Tú recuerdo sigue aquí, como aguacero de mayo 
C#     B            F# 
Rompe fuerte sobre mi 
                               G# 
Y cae tan fuerte, que hasta me quema hasta la piel. 
C#       B         F#          G#             C#   B 
quema y moja por igual, y ya no sé lo que pensar 
F#                     G# 
Si tu recuerdo me hace bien o me hace mal. 
C#     B            F#                G# 
Tú recuerdo sigue aquí, le lo lay lelo lelo 
C#      B          F#                    G# 
Rompe fuerte sobre mí, pero que rompe, rompe, el corazón. 
C#       B         F#        G#               C#    B 
quema y moja por igual, sé que te tengo que olvidar 
   F#                  G# 
Si tu recuerdo me hace bien o me hace mal. 

E---------------|-----------|--------|-------------------------11----| 
A---------------|-----------|--------|----------------------13-------| 
D---------------|-----------|--------|13-----------------13—----5----| 
G-11------------|11---------|--------|---11-----------11----------5--| 
B----12---------|---12------|--------|------11--12-11---------------4| 
E-------14-13-11|------11-14|15-14-12|-------------------------------| 


	  

No existe una video leccione para esta canción

request
Aumentar uno tonoAumentar uno tono
Aumentar uno semi-tonoAumentar uno semi-tono
Disminuir uno semi-tonoDisminuir uno semi-tono
Disminuir uno tonoDisminuir uno semi-tono
LosAcordes
Buscar
auto avanzar rasgueos aumentar disminuir cambiar color esconder acordes gráficos
losacordes exhibir acordes losacordes youTube video losacordes ocultar tabs losacordes ir hacia arriba losacordes