Red Hot Chili Peppers

Início > Red Hot Ch... > acordes

Can't Stop (ver. 3) Tablatura

Red Hot Chili Peppers

Dificultad:AdelantadoAdelantado

luchor

tuner correct add songbook print version text version salvar en e-mail
acordesukuleletablaturabajobateriaarmónicaflautacavacopiano Guitar Pro
acordes

Can't Stop (ver. 3)

	  Solo 
e----12b--12----------------------------------- 
B-------------15-----15----12-----12------- 
G---------------------------------12------------- 
D-------------------------------------------------- 
A-------------------------------------------------- 
E------------------------------------------------- 
-------------------------------------------------------------------------------------- 
e---12--14b--------12--------------------- 
B-------------15------12--15-------------- 
G----------------------------------14-12---- 
D----------------------------------------------- 
A----------------------------------------------- 
E----------------------------------- 

	  

No existe una video leccione para esta canción

request
LosAcordes
Buscar
auto avanzar rasgueos aumentar disminuir cambiar color esconder acordes gráficos
losacordes exhibir acordes losacordes youTube video losacordes ocultar tabs losacordes ir hacia arriba losacordes