Raised Fist

Início > Raised Fis... > acordes

Illustration Of Desperation Tablatura

Raised Fist

Dificultad:Ningún gradoNingún grado

jessgomes

tuner correct add songbook print version text version salvar en e-mail
acordesukuleletablaturabajobateríaarmónicaflautacavacopiano Guitar Pro
acordes

Illustration Of Desperation

	  Intro 

Guitar 1 

D|--------------------------------| 
A|--------------------------------| 
F|-7------------------------------| 
C|--------------------------------| 
G|-5------------------------------| 
C|--------------------------------| 



Guitar 2 

D|--------------------------------| 
A|--------------------------------| 
F|-10-----------------------------| 
C|--------------------------------| 
G|-8------------------------------| 
C|--------------------------------| 



Verse  

Both Guitars 

D|--------------------------------| 
A|--------------------------------| 
F|--------------------------------| 
C|-----------------12---12--------| 
G|-----------------10---12--------| 
C|-----------------10---12--------| 


Both Guitars 

D|--------------------------------| 
A|--------------------------------| 
F|--------------------------------| 
C|-0--3--10-----------------------| 
G|-0--3--10-----------------------| 
C|-0--3--10-----------------------| 



Chorus 

D|--------------------------------| 
A|--------------------------------| 
F|--------------------------------| 
C|-12--12--11--12--12-------------| 
G|-12--10--9---10--12-------------| 
C|-12--10--9---10--12-------------| 

D|--------------------------------| 
A|--------------------------------| 
F|--------------------------------| 
C|-8--10--12-12-12----------------| 
G|-8--10--10-12-12----------------| 
C|-8--10--10-12-12----------------| 

D|--------------------------------| 
A|--------------------------------| 
F|--------------------------------| 
C|-12--12--11--12--12-------------| 
G|-12--10--9---10--12-------------| 
C|-12--10--9---10--12-------------| 

D|--------------------------------| 
A|--------------------------------| 
F|--------------------------------| 
C|-8--10--12-12-12----------------| 
G|-8--10--10-12-12----------------| 
C|-8--10--10-12-12----------------| 
   X  X 


Interlude 

Guitar 1 

D|--------------------------------| 
A|--------------------------------| 
F|-7------------------------------| 
C|--------------------------------| 
G|-5------------------------------| 
C|--------------------------------| 


Guitar 2 

D|--------------------------------| 
A|--------------------------------| 
F|-10-----------------------------| 
C|--------------------------------| 
G|-8------------------------------| 
C|--------------------------------| 


verse 2  

D|--------------------------------| 
A|--------------------------------| 
F|--------------------------------| 
C|-0------------------------------| 
G|-0------------------------------| 
C|-0------------------------------| 


Interlude 

Guitar 1 

D|--------------------------------| 
A|--------------------------------| 
F|-7------------------------------| 
C|--------------------------------| 
G|-5------------------------------| 
C|--------------------------------| 


Guitar 2 

D|--------------------------------| 
A|--------------------------------| 
F|-10-----------------------------| 
C|--------------------------------| 
G|-8------------------------------| 
C|--------------------------------| 


Outro 

D|--------------------------------| 
A|--------------------------------| 
F|--------------------------------| 
C|-8------10----------------------| 
G|-8--or--8-----------------------| 
C|-8------8-----------------------| 

************************************ 
| X - palm mute 
************************************ 
	  

No existe una video leccione para esta canción

request
LosAcordes
Buscar
auto avanzar rasgueos aumentar disminuir cambiar color esconder acordes gráficos
losacordes exhibir acordes losacordes youTube video losacordes ocultar tabs losacordes ir hacia arriba losacordes