Rafael Escalona

Início > Rafael Esc... > acordes

La Casa En El Aire Tablatura

Rafael Escalona

Dificultad:ExpertoExperto

robepoiel

tuner correct add songbook print version text version salvar en e-mail
acordesukuleletablaturabajobateríaarmónicaflautacavacopiano Guitar Pro
acordes

La Casa En El Aire

	  E|--3-2-0-3-3-3-3-2-5-2-| 
B|-3--------------------| 
G|----------------------| 
D|----------------------| 
A|----------------------| 
E|----------------------| 

E |--2-0-2-2-2-2-0-3----| 
B |-3---3---------------| 
G |---------------------| 
D |---------------------| 
A |---------------------| 
E |---------------------| 

E |--3-2-0-0-0-0-2-0----| 
B |-3-----------3---1---| 
G |---------------------| 
D |---------------------| 
A |---------------------| 
E |---------------------| 

E |--2-0---------0------| 
B |-3---3-3-3-3-1-3-----| 
G |---------------------| 
D |---------------------| 
A |---------------------| 
E |---------------------| 
	  

No existe una video leccione para esta canción

request
LosAcordes
Buscar
auto avanzar rasgueos aumentar disminuir cambiar color esconder acordes gráficos
losacordes exhibir acordes losacordes youTube video losacordes ocultar tabs losacordes ir hacia arriba losacordes