Racounters

Início > Racounters > acordes

Hands Tablatura

Racounters

Dificultad:Ningún gradoNingún grado

europeu

tuner correct add songbook print version text version salvar en e-mail
acordesukuleletablaturabajobateríaarmónicaflautacavacopiano Guitar Pro
acordes

Hands

	  Tuning: Normal 
 
Intro: Light distorted / Listen for rythm on the strumming. 
 
e|--------------------------------------| 
B|--------------------------------------| 
G|----------8---------------------------| 
D|--8--6-6--8--8-6-5-5h6p5-8------------|     x 4 
A|--8--6-6--6---------------------------| 
E|--6--4-4------------------------------| 
 
Verse: 
 
Girl you got those .... 
e|--------------------------------------| 
B|--------------------------------------| 
G|--------------8-----------------------| 
D|--8-----------8-let ring--------------|     x 4 
A|--8-let ring--6-----------------------| 
E|--6-----------------------------------| 
 
Chorus: Light distorted 
 
e|-----------------------------------------------------------------------------------------------------------| 
B|-----------------------------------------------------------------------------------------------------------| 
G|----------------------------8-------------------------------------13-12----13-12----13-12----13-12---------| 
D|--4------------6------------8------------4------------6-----------------13-------13-------13-------13------| 
A|--4-(8-times)--6-(8-times)--6-(16-times)-4-(8-times)--6-(8-times)-------------------------------------11~--| 
E|--2------------4-------------------------2------------4----------------------------------------------------| 
 
Verse: Same 
 
Chorus: Same except last notes that are just scrambled. 
 
Bridge: 
 
e|---------------------------------------------------------------------------| 
B|---------------------------------------------------------------------------| 
G|---------------------------------------------------------------------------| 
D|---------------------------------------------------------------------------| 
A|---------------------------------------------------------------------------| 
E|-1-1-1-1-1-1-1-1-(many-times)----------------------------------------------| 
 
Then: 
Whoo hoo bit 
e|---------------------------------------------------------------------------| 
B|---------------------------------------------------------------------------| 
G|---------------------------------------------------------------------------| 
D|---------------------------------------------------------------------------| 
A|-6-6-6-6-6-6-6-6--4-4-4-4-4-4-4-4------------------------------------------| 
E|-----------------------------------4-4-4-4-4-4-4-4--1-1-1-1-1-1-1-1--------| 
 
End: 
 
When you're with me... 
e|---------------------------------------------------------------| 
B|---------------------------------------------------------------| 
G|---------------8------------6----------------------------------| 
D|--3------------8-(8-times)--6-(8-times)--6------------5-4------| Repeat 
A|--3-(8-times)--6------------4------------6-(6-times)--5-4------| 
E|--1--------------------------------------4------------3-2------| 
 
 
| /  slide up 
| \  slide down 
| h  hammer-on 
| p  pull-off 
| ~  vibrato 
| +  harmonic 
| x  Mute note 
 

	  

No existe una video leccione para esta canción

request
LosAcordes
Buscar
auto avanzar rasgueos aumentar disminuir cambiar color esconder acordes gráficos
losacordes exhibir acordes losacordes youTube video losacordes ocultar tabs losacordes ir hacia arriba losacordes