Peter Paul and Mary

Início > Peter Paul... > acordes

If I Had A Hammer Tablatura

Peter Paul and Mary

Dificultad:Ningún gradoNingún grado

bombaXXX

tuner correct add songbook print version text version salvar en e-mail
acordesukuleletablaturabajobateríaarmónicaflautacavacopiano Guitar Pro
acordes

If I Had A Hammer

	   
 


   Intro 
    Q=180          1.,2.                 3. 
    A      C#m      D     E               D     E 
   4/4 
    Gtr I (Ac. Nylonstring Gtr.) 
    Q  E E Q  E E   E E E E +E  E E E  3x E E E E +E  E E E 
||---------4--4-x-|-2-2-2-0-(0)-0-0-0--||-2-2-2-0-(0)-0-0-0-|| 
||o-2--2-x-5--5-x-|-3-3-3-0-(0)-0-0-0-o||-3-3-3-0-(0)-0-0-0-|| 
||--2--2-x-6--6-x-|-2-2-2-1-(1)-1-1-1--||-2-2-2-1-(1)-1-1-1-|| 
||--2--2-x-6--6-x-|-0-0-0-2-(2)-2-2-2--||-0-0-0-2-(2)-2-2-2-|| 
||o-0--0-x-4--4-x-|-------2-(2)-2-2-2-o||-------2-(2)-2-2-2-|| 
||----------------|-------0-(0)-0-0-0--||-------0-(0)-0-0-0-|| 
| 
|   Gtr II (Ac. Steelstring Gtr. w/  
) 
|   Q  E E Q  E E   E E E E +E  E E E  3x E E E E +E  E E E 
||--3--3-x-2--2-x-|-0-0-0-2-(2)-2-2-2--||-0-0-0-2-(2)-2-2-2-|| 
||o-0--0-x-3--3-x-|-1-1-1-3-(3)-3-3-3-o||-1-1-1-3-(3)-3-3-3-|| 
||--0--0-x-4--4-x-|-0-0-0-2-(2)-2-2-2--||-0-0-0-2-(2)-2-2-2-|| 
||--0--0-x-4--4-x-|-2-2-2-0-(0)-0-0-0--||-2-2-2-0-(0)-0-0-0-|| 
||o-2--2-x-2--2-x-|-3-3-3-------------o||-3-3-3-------------|| 
||--3--3-x--------|--------------------||-------------------|| 


   1st - 3rd Verses 
    A      C#m      D     E             A      C#m      D     E 
    Q  E E Q  E E   E E E E +E  E E E   Q  E E Q  E E   E E E E +E  E E E 
||---------4--4-x-|-2-2-2-0-(0)-0-0-0-|--------4--4-x-|-2-2-2-0-(0)-0-0-0-| 
||o-2--2-x-5--5-x-|-3-3-3-0-(0)-0-0-0-|-2--2-x-5--5-x-|-3-3-3-0-(0)-0-0-0-| 
||--2--2-x-6--6-x-|-2-2-2-1-(1)-1-1-1-|-2--2-x-6--6-x-|-2-2-2-1-(1)-1-1-1-| 
||--2--2-x-6--6-x-|-0-0-0-2-(2)-2-2-2-|-2--2-x-6--6-x-|-0-0-0-2-(2)-2-2-2-| 
||o-0--0-x-4--4-x-|-------2-(2)-2-2-2-|-0--0-x-4--4-x-|-------2-(2)-2-2-2-| 
||----------------|-------0-(0)-0-0-0-|---------------|-------0-(0)-0-0-0-| 
| 
|   Q  E E Q  E E   E E E E +E  E E E   Q  E E Q  E E   E E E E +E  E E E 
||--3--3-x-2--2-x-|-0-0-0-2-(2)-2-2-2-|-3--3-x-2--2-x-|-0-0-0-2-(2)-2-2-2-| 
||o-0--0-x-3--3-x-|-1-1-1-3-(3)-3-3-3-|-0--0-x-3--3-x-|-1-1-1-3-(3)-3-3-3-| 
||--0--0-x-4--4-x-|-0-0-0-2-(2)-2-2-2-|-0--0-x-4--4-x-|-0-0-0-2-(2)-2-2-2-| 
||--0--0-x-4--4-x-|-2-2-2-0-(0)-0-0-0-|-0--0-x-4--4-x-|-2-2-2-0-(0)-0-0-0-| 
||o-2--2-x-2--2-x-|-3-3-3-------------|-2--2-x-2--2-x-|-3-3-3-------------| 
||--3--3-x--------|-------------------|-3--3-x--------|-------------------| 


  A      C#m      D     E                  Eadd9   E 
  Q  E E Q  E E   E E E E +E  E E E   Q  E E +E  E Q    +E  Q  E E E Q 
|--------4--4-x-|-2-2-2-0-(0)-0-0-0-|-0--0-2-(2)-2-0--|-(0)-0--0-0-0-0---| 
|-2--2-x-5--5-x-|-3-3-3-0-(0)-0-0-0-|-0--0-0-(0)-0-0--|-(0)-0--0-0-0-0---| 
|-2--2-x-6--6-x-|-2-2-2-1-(1)-1-1-1-|-1--1-1-(1)-1-1--|-(1)-1--1-1-1-1---| 
|-2--2-x-6--6-x-|-0-0-0-2-(2)-2-2-2-|-2--2-2-(2)-2-2--|-(2)-2--2-2-2-2---| 
|-0--0-x-4--4-x-|-------2-(2)-2-2-2-|-2--2-2-(2)-2-2--|-(2)-2--2-2-2-2---| 
|---------------|-------0-(0)-0-0-0-|-0--0-0-(0)-0-0--|-(0)-0--0-0-0-0---| 
| 
| Q  E E Q  E E   E E E E +E  E E E   Q  E E +E  E Q    +E  Q  E E E Q 
|-3--3-x-2--2-x-|-0-0-0-2-(2)-2-2-2-|-2--2-2-(2)-2-2--|-(2)-2--2-2-2-2---| 
|-0--0-x-3--3-x-|-1-1-1-3-(3)-3-3-3-|-3--5-5-(5)-5-3--|-(3)-3--3-3-3-3---| 
|-0--0-x-4--4-x-|-0-0-0-2-(2)-2-2-2-|-2--2-2-(2)-2-2--|-(2)-2--2-2-2-2---| 
|-0--0-x-4--4-x-|-2-2-2-0-(0)-0-0-0-|-0--0-0-(0)-0-0--|-(0)-0--0-0-0-0---| 
|-2--2-x-2--2-x-|-3-3-3-------------|-----------------|------------------| 
|-3--3-x--------|-------------------|-----------------|------------------| 


  A                             F#m 
  Q  E E Q  Q    Q  E E Q  Q    Q  E E Q  Q    Q  E E Q  Q 
|--------------|--------------|----2-2----2--|----2-2----2---| 
|----2-2----2--|----2-2----2--|----2-2----2--|----2-2----2---| 
|----2-2----2--|----2-2----2--|----2-2----2--|----2-2----2---| 
|----2-2----2--|----2-2----2--|----4-4----4--|----4-4----4---| 
|-0------0-----|-0------0-----|--------------|---------------| 
|--------------|--------------|-2------2-----|-2------2------| 
| 
| Q  E E Q  Q    Q  E E Q  Q    Q  E E Q  Q    Q  E E Q  Q 
|----3-3----3--|----3-3----3--|----0-0----0--|----0-0----0---| 
|----0-0----0--|----0-0----0--|----0-0----0--|----0-0----0---| 
|----0-0----0--|----0-0----0--|----0-0----0--|----0-0----0---| 
|----0-0----0--|----0-0----0--|----2-2----2--|----2-2----2---| 
|--------------|--------------|--------------|---------------| 
|-3------3-----|-3------3-----|-0------0-----|-0------0------| 


  D     A       D     A       D     A       E 
  Q  Q  Q  Q    Q  Q  Q  Q    Q  Q  Q  Q    Q  E E +E  E Q 
|----2--------|----2--------|-2--2--------|-0--0-0-(0)-0-0---| 
|----3-----2--|----3-----2--|-3--3--2--2--|-0--0-0-(0)-0-0---| 
|----2-----2--|----2-----2--|-2--2--2--2--|-1--1-1-(1)-1-1---| 
|-0--------2--|-0--------2--|-0--0--2--2--|-2--2-2-(2)-2-2---| 
|-------0-----|-------0-----|-------0--0--|-2--2-2-(2)-2-2---| 
|-------------|-------------|-------------|-0--0-0-(0)-0-0---| 
| 
| Q  Q  Q  Q    Q  Q  Q  Q    Q  Q  Q  Q    Q  E E +E  E Q 
|----0-----3--|----0-----3--|-0--0--3--3--|-2--2-2-(2)-2-2---| 
|----1-----0--|----1-----0--|-1--1--0--0--|-3--3-3-(3)-3-3---| 
|----0-----0--|----0-----0--|-0--0--0--0--|-2--2-2-(2)-2-2---| 
|----2-----0--|----2-----0--|-2--2--0--0--|-0--0-0-(0)-0-0---| 
|-3-----------|-3-----------|-3--3--2--2--|------------------| 
|-------3-----|-------3-----|-------3--3--|------------------| 


  A      C#m      D     E             A      C#m      D     E 
  Q  E E Q  E E   E E E E +E  E E E   Q  E E Q  E E   E E E E +E  E E E   3x 
|--------4--4-x-|-2-2-2-0-(0)-0-0-0-|--------4--4-x-|-2-2-2-0-(0)-0-0-0---|| 
|-2--2-x-5--5-x-|-3-3-3-0-(0)-0-0-0-|-2--2-x-5--5-x-|-3-3-3-0-(0)-0-0-0--o|| 
|-2--2-x-6--6-x-|-2-2-2-1-(1)-1-1-1-|-2--2-x-6--6-x-|-2-2-2-1-(1)-1-1-1---|| 
|-2--2-x-6--6-x-|-0-0-0-2-(2)-2-2-2-|-2--2-x-6--6-x-|-0-0-0-2-(2)-2-2-2---|| 
|-0--0-x-4--4-x-|-------2-(2)-2-2-2-|-0--0-x-4--4-x-|-------2-(2)-2-2-2--o|| 
|---------------|-------0-(0)-0-0-0-|---------------|-------0-(0)-0-0-0---|| 
| 
| Q  E E Q  E E   E E E E +E  E E E   Q  E E Q  E E   E E E E +E  E E E   3x 
|-3--3-x-2--2-x-|-0-0-0-2-(2)-2-2-2-|-3--3-x-2--2-x-|-0-0-0-2-(2)-2-2-2---|| 
|-0--0-x-3--3-x-|-1-1-1-3-(3)-3-3-3-|-0--0-x-3--3-x-|-1-1-1-3-(3)-3-3-3--o|| 
|-0--0-x-4--4-x-|-0-0-0-2-(2)-2-2-2-|-0--0-x-4--4-x-|-0-0-0-2-(2)-2-2-2---|| 
|-0--0-x-4--4-x-|-2-2-2-0-(0)-0-0-0-|-0--0-x-4--4-x-|-2-2-2-0-(0)-0-0-0---|| 
|-2--2-x-2--2-x-|-3-3-3-------------|-2--2-x-2--2-x-|-3-3-3--------------o|| 
|-3--3-x--------|-------------------|-3--3-x--------|---------------------|| 


 4th Verse 
  A      C#m      D     E             A      C#m      D     E 
  Q  E E Q  E E   E E E E +E  E E E   Q  E E Q  E E   E E E E +E  E E E 
|--------4--4-x-|-2-2-2-0-(0)-0-0-0-|--------4--4-x-|-2-2-2-0-(0)-0-0-0--| 
|-2--2-x-5--5-x-|-3-3-3-0-(0)-0-0-0-|-2--2-x-5--5-x-|-3-3-3-0-(0)-0-0-0--| 
|-2--2-x-6--6-x-|-2-2-2-1-(1)-1-1-1-|-2--2-x-6--6-x-|-2-2-2-1-(1)-1-1-1--| 
|-2--2-x-6--6-x-|-0-0-0-2-(2)-2-2-2-|-2--2-x-6--6-x-|-0-0-0-2-(2)-2-2-2--| 
|-0--0-x-4--4-x-|-------2-(2)-2-2-2-|-0--0-x-4--4-x-|-------2-(2)-2-2-2--| 
|---------------|-------0-(0)-0-0-0-|---------------|-------0-(0)-0-0-0--| 
| 
| Q  E E Q  E E   E E E E +E  E E E   Q  E E Q  E E   E E E E +E  E E E 
|-3--3-x-2--2-x-|-0-0-0-2-(2)-2-2-2-|-3--3-x-2--2-x-|-0-0-0-2-(2)-2-2-2--| 
|-0--0-x-3--3-x-|-1-1-1-3-(3)-3-3-3-|-0--0-x-3--3-x-|-1-1-1-3-(3)-3-3-3--| 
|-0--0-x-4--4-x-|-0-0-0-2-(2)-2-2-2-|-0--0-x-4--4-x-|-0-0-0-2-(2)-2-2-2--| 
|-0--0-x-4--4-x-|-2-2-2-0-(0)-0-0-0-|-0--0-x-4--4-x-|-2-2-2-0-(0)-0-0-0--| 
|-2--2-x-2--2-x-|-3-3-3-------------|-2--2-x-2--2-x-|-3-3-3--------------| 
|-3--3-x--------|-------------------|-3--3-x--------|--------------------| 


  A      C#m      D     E                  Eadd9   E 
  Q  E E Q  E E   E E E E +E  E E E   Q  E E +E  E Q    +E  Q  E E E Q 
|--------4--4-x-|-2-2-2-0-(0)-0-0-0-|-0--0-2-(2)-2-0--|-(0)-0--0-0-0-0---| 
|-2--2-x-5--5-x-|-3-3-3-0-(0)-0-0-0-|-0--0-0-(0)-0-0--|-(0)-0--0-0-0-0---| 
|-2--2-x-6--6-x-|-2-2-2-1-(1)-1-1-1-|-1--1-1-(1)-1-1--|-(1)-1--1-1-1-1---| 
|-2--2-x-6--6-x-|-0-0-0-2-(2)-2-2-2-|-2--2-2-(2)-2-2--|-(2)-2--2-2-2-2---| 
|-0--0-x-4--4-x-|-------2-(2)-2-2-2-|-2--2-2-(2)-2-2--|-(2)-2--2-2-2-2---| 
|---------------|-------0-(0)-0-0-0-|-0--0-0-(0)-0-0--|-(0)-0--0-0-0-0---| 
| 
| Q  E E Q  E E   E E E E +E  E E E   Q  E E +E  E Q    +E  Q  E E E Q 
|-3--3-x-2--2-x-|-0-0-0-2-(2)-2-2-2-|-2--2-2-(2)-2-2--|-(2)-2--2-2-2-2---| 
|-0--0-x-3--3-x-|-1-1-1-3-(3)-3-3-3-|-3--5-5-(5)-5-3--|-(3)-3--3-3-3-3---| 
|-0--0-x-4--4-x-|-0-0-0-2-(2)-2-2-2-|-2--2-2-(2)-2-2--|-(2)-2--2-2-2-2---| 
|-0--0-x-4--4-x-|-2-2-2-0-(0)-0-0-0-|-0--0-0-(0)-0-0--|-(0)-0--0-0-0-0---| 
|-2--2-x-2--2-x-|-3-3-3-------------|-----------------|------------------| 
|-3--3-x--------|-------------------|-----------------|------------------| 


    A                             F#m 
    Q  E E Q  Q    Q  E E Q  Q    Q  E E Q  Q    Q  E E Q  Q 
||---------------|--------------|----2-2----2--|----2-2----2--| 
||o----2-2----2--|----2-2----2--|----2-2----2--|----2-2----2--| 
||-----2-2----2--|----2-2----2--|----2-2----2--|----2-2----2--| 
||-----2-2----2--|----2-2----2--|----4-4----4--|----4-4----4--| 
||o-0------0-----|-0------0-----|--------------|--------------| 
||---------------|--------------|-2------2-----|-2------2-----| 
| 
|   Q  E E Q  Q    Q  E E Q  Q    Q  E E Q  Q    Q  E E Q  Q 
||-----3-3----3--|----3-3----3--|----0-0----0--|----0-0----0--| 
||o----0-0----0--|----0-0----0--|----0-0----0--|----0-0----0--| 
||-----0-0----0--|----0-0----0--|----0-0----0--|----0-0----0--| 
||-----0-0----0--|----0-0----0--|----2-2----2--|----2-2----2--| 
||o--------------|--------------|--------------|--------------| 
||--3------3-----|-3------3-----|-0------0-----|-0------0-----| 


                             1. 
  D     A       D     A       D     A       E 
  Q  Q  Q  Q    Q  Q  Q  Q    Q  Q  Q  Q    Q  E E +E  E Q 
|----2--------|----2--------|-2--2--------|-0--0-0-(0)-0-0---| 
|----3-----2--|----3-----2--|-3--3--2--2--|-0--0-0-(0)-0-0---| 
|----2-----2--|----2-----2--|-2--2--2--2--|-1--1-1-(1)-1-1---| 
|-0--------2--|-0--------2--|-0--0--2--2--|-2--2-2-(2)-2-2---| 
|-------0-----|-------0-----|-------0--0--|-2--2-2-(2)-2-2---| 
|-------------|-------------|-------------|-0--0-0-(0)-0-0---| 
| 
| Q  Q  Q  Q    Q  Q  Q  Q    Q  Q  Q  Q    Q  E E +E  E Q 
|----0-----3--|----0-----3--|-0--0--3--3--|-2--2-2-(2)-2-2---| 
|----1-----0--|----1-----0--|-1--1--0--0--|-3--3-3-(3)-3-3---| 
|----0-----0--|----0-----0--|-0--0--0--0--|-2--2-2-(2)-2-2---| 
|----2-----0--|----2-----0--|-2--2--0--0--|-0--0-0-(0)-0-0---| 
|-3-----------|-3-----------|-3--3--2--2--|------------------| 
|-------3-----|-------3-----|-------3--3--|------------------| 


                                       2. 
  A      C#m      D     E               D     A       E 
  Q  E E Q  E E   E E E E +E  E E E     Q  Q  Q  Q    Q  E E +E  E Q 
|--------4--4-x-|-2-2-2-0-(0)-0-0-0--||-2--2--------|-0--0-0-(0)-0-0---|| 
|-2--2-x-5--5-x-|-3-3-3-0-(0)-0-0-0-o||-3--3--2--2--|-0--0-0-(0)-0-0---|| 
|-2--2-x-6--6-x-|-2-2-2-1-(1)-1-1-1--||-2--2--2--2--|-1--1-1-(1)-1-1---|| 
|-2--2-x-6--6-x-|-0-0-0-2-(2)-2-2-2--||-0--0--2--2--|-2--2-2-(2)-2-2---|| 
|-0--0-x-4--4-x-|-------2-(2)-2-2-2-o||-------0--0--|-2--2-2-(2)-2-2---|| 
|---------------|-------0-(0)-0-0-0--||-------------|-0--0-0-(0)-0-0---|| 
| 
| Q  E E Q  E E   E E E E +E  E E E     Q  Q  Q  Q    Q  E E +E  E Q 
|-3--3-x-2--2-x-|-0-0-0-2-(2)-2-2-2--||-0--0--3--3--|-2--2-2-(2)-2-2---|| 
|-0--0-x-3--3-x-|-1-1-1-3-(3)-3-3-3-o||-1--1--0--0--|-3--3-3-(3)-3-3---|| 
|-0--0-x-4--4-x-|-0-0-0-2-(2)-2-2-2--||-0--0--0--0--|-2--2-2-(2)-2-2---|| 
|-0--0-x-4--4-x-|-2-2-2-0-(0)-0-0-0--||-2--2--0--0--|-0--0-0-(0)-0-0---|| 
|-2--2-x-2--2-x-|-3-3-3-------------o||-3--3--2--2--|------------------|| 
|-3--3-x--------|--------------------||-------3--3--|------------------|| 


 Outro 
  F#m               E                  A 
  Q  E E +E  E Q    Q  E E +E  E E E   Q  E E +E  E E E   Q  Q  H 
|-2--2-2-(2)-2-2--|-0--0-0-(0)-0-0-0-|------------------|------------*| 
|-2--2-2-(2)-2-2--|-0--0-0-(0)-0-0-0-|-2--2-2-(2)-2-2-2-|-2-----2----*| 
|-2--2-2-(2)-2-2--|-1--1-1-(1)-1-1-1-|-2--2-2-(2)-2-2-2-|-2-----2----*| 
|-4--4-4-(4)-4-4--|-2--2-2-(2)-2-2-2-|-2--2-2-(2)-2-2-2-|-2-----2----*| 
|-4--4-4-(4)-4-4--|-2--2-2-(2)-2-2-2-|-0--0-0-(0)-0-0-0-|-0-----0----*| 
|-2--2-2-(2)-2-2--|-0--0-0-(0)-0-0-0-|------------------|------------*| 
| 
| Q  E E +E  E Q    Q  E E +E  E E E   Q  E E +E  E E E   Q  Q  H 
|-0--0-0-(0)-0-0--|-2--2-2-(2)-2-2-2-|-3--3-3-(3)-3-3-3-|-3-----3----*| 
|-0--0-0-(0)-0-0--|-3--3-3-(3)-3-3-3-|-0--0-0-(0)-0-0-0-|-0-----0----*| 
|-0--0-0-(0)-0-0--|-2--2-2-(2)-2-2-2-|-0--0-0-(0)-0-0-0-|-0-----0----*| 
|-2--2-2-(2)-2-2--|-0--0-0-(0)-0-0-0-|-0--0-0-(0)-0-0-0-|-0-----0----*| 
|-2--2-2-(2)-2-2--|------------------|-2--2-2-(2)-2-2-2-|-2-----2----*| 
|-0--0-0-(0)-0-0--|------------------|-3--3-3-(3)-3-3-3-|-3-----3----*|  
	  

No existe una video leccione para esta canción

request
Aumentar uno tonoAumentar uno tono
Aumentar uno semi-tonoAumentar uno semi-tono
Disminuir uno semi-tonoDisminuir uno semi-tono
Disminuir uno tonoDisminuir uno semi-tono
LosAcordes
Buscar
auto avanzar rasgueos aumentar disminuir cambiar color esconder acordes gráficos
losacordes exhibir acordes losacordes youTube video losacordes ocultar tabs losacordes ir hacia arriba losacordes