Pennywise

Início > Pennywise > acordes

minor threat Tablatura

Pennywise

Dificultad:Ningún gradoNingún grado

papapa

tuner correct add songbook print version text version salvar en e-mail
acordesukuleletablaturabajobateríaarmónicaflautacavacopiano Guitar Pro
acordes

minor threat

	  E|----------------------------------------------------- 
B|----------------------------------------------------- 
G|----7-7-7-7-----------9-9-9-9--5-5------------------- 
D|----7-7-7-7--7-7-7-7--9-9-9-9--5-5--5-5-------------- 
A|----5-5-5-5--7-7-7-7--7-7-7-7--3-3--5-5-------------- 
E|-------------5-5-5-5----------------3-3-------------- 
  play this 2 times 
 
 
E|----------------------------------------------------- 
B|----------------------------------------------------- 
G|----7-7-7-7-----------9-9-9-9--5-5------------------- 
D|----7-7-7-7--7-7-7-7--9-9-9-9--5-5--5-5---play this 4 times 
A|----5-5-5-5--7-7-7-7--7-7-7-7--3-3--5-5-------------- 
E|-------------5-5-5-5----------------3-3-------------- 
  P.M.-------------------------   
     
 
 

	  

No existe una video leccione para esta canción

request
LosAcordes
Buscar
auto avanzar rasgueos aumentar disminuir cambiar color esconder acordes gráficos
losacordes exhibir acordes losacordes youTube video losacordes ocultar tabs losacordes ir hacia arriba losacordes