Pedro Tata Barahona

Início > Pedro Tata... > acordes

La Mejicana Tablatura

Pedro Tata Barahona

Dificultad:Ningún gradoNingún grado

gustsilva

tuner correct add songbook print version text version salvar en e-mail
acordesukuleletablaturabajobateríaarmónicaflautacavacopiano Guitar Pro
acordes

La Mejicana

Tono:  Am Más
La Mejicana Key EmEm
La Mejicana Key FmFm
La Mejicana Key F#mF#m
La Mejicana Key GmGm(Disminuir uno tono)
La Mejicana Key G#mG#m(Disminuir uno semi-tono)
La Mejicana Key AmAm(tono original)
La Mejicana Key A#mA#m(Aumentar uno semi-tono)
La Mejicana Key BmBm(Aumentar uno tono)
La Mejicana Key CmCm
La Mejicana Key C#mC#m
La Mejicana Key DmDm
La Mejicana Key D#mD#m
	  

    Am 
1-----------------| 
2-----1-1h0---0---| 
3---2-------2---0-| 
4-----------------| 
5-0---------------| 
6-----------------| 

1-----------------|---------------| 
2-----------------|-0h1h0---0---1-| 
3---0---------0---|-------2---0-2-| 
4-----2h0-2/4---4-|-------------2-| 
5-0---------------|-------------0-| 
6-----------------|---------------| 


    Am           Fmaj7 
1-------0-----|-----------0-| 
2-----1---3-1-|-----1-1-3---| 
3---2---------|---2---------| 
4-------------|-3-----------| 
5-0-----------|-------------| 
6-------------|-------------| 


    G                    D         E 
1|-------------------|-------0----------| 
2|-------3-1h0---0---|-----3----------0-| 
3|-----0-------2---0-|---2----------1---| 
4|---0---------------|-0----------2-----| 
5|-------------------|------------------| 
6|-3-----------------|----------0-------| 

el sol y el re se hacen así 

  G       D 
1-3-|  1|-0-| 
2-1-|  2|-3-| 
3-0-|  3|-2-| 
4-0-|  4|-0-| 
5-x-|  5|-x-| 
6-3-|  6|-x-| 
 
	  

No existe una video leccione para esta canción

request
Aumentar uno tonoAumentar uno tono
Aumentar uno semi-tonoAumentar uno semi-tono
Disminuir uno semi-tonoDisminuir uno semi-tono
Disminuir uno tonoDisminuir uno semi-tono
LosAcordes
Buscar
auto avanzar rasgueos aumentar disminuir cambiar color esconder acordes gráficos
losacordes exhibir acordes losacordes youTube video losacordes ocultar tabs losacordes ir hacia arriba losacordes