Paramore

Início > Paramore > acordes

Turn It Off Tablatura

Paramore

Dificultad:PrincipiantePrincipiante

IronPower4Ever

tuner correct add songbook print version text version salvar en e-mail
acordesukuleletablaturabaixobateríaarmónicaflautacavacopiano Guitar Pro
acordes

Turn It Off

Áño: 2009 - Álbum: Brand New Eyes

	  (intro) 

(guitar 1) 
E |--------------------| 
B |--------------------| 
G |------4-55555-------|x4 
D |-7777-5-55555-33----| 
A |-7777-2-33333-33----| 
E |-5555---------11----| 

(guitar 2) 
E |---------------------------------------------------------------------------| 
B |---------------------------------------------------------------------------| 
G |---------------------------------------------------------------------------| 
D |-9-8-9-8------11-11--13-14-13---------------9-8-9-8-----11-11--13-14-13----| 
A |----------9--------------------11-11-11--------------9---------------------| 
E |---------------------------------------------------------------------------| 

E |-----------------------------------------------------------------------------| 
B |-12-11-12-11-----------------------------12-11-12-11-------------------------| 
G |-------------11--6-6--8-9-8--------------------------11--6-6--8-9-8---64----| 
D |------------------------------6-6-6------------------------------------------| 
A |-----------------------------------------------------------------------------| 
E |-----------------------------------------------------------------------------| 

(verse) 
(guitar 1) 
E |-------------------------------------| 
B |-------------------------------------| 
G |----------55555555-77777777----------|x4 
D |-77777777-55555555-77777777-33333333-| 
A |-77777777-33333333-55555555-33333333-| 
E |-55555555-------------------11111111-| 

(guitar 2) 
E |----0-------0--------1-------0----| 
B |------1-------1-----3--3-------1--| 
G |---2-------0-------2--------0-----|x2 
D |--2-------2-------0--------3------| 
A |-0-------3----------------3-------| 
E |----------------------------------| 

(then) 
I wanna know what it'd be like.... 
E |---11-------11-------11-------11-------11-------11--------------------------| 
B |-12--12---12--12---12--12---12--12---12--12---12--12---12-14-12---12-14-12--| 
G |----------------------------------------------------------------------------| 
D |----------------------------------------------------------------------------| 
A |----------------------------------------------------------------------------| 
E |----------------------------------------------------------------------------| 

E |---11-------11-------11-------11-------11-------11--------| 
B |-12--12---12--12---12--12---12--12---12--12---12--12------| 
G |----------------------------------------------------------| 
D |----------------------------------------------------------| 
A |----------------------------------------------------------| 
E |----------------------------------------------------------| 

(Chorus) 
And the worst part is..... 
E |---------------------------------------| 
B |---------------------------------------| 
G |-55555555-44444444---------------------|x2 
D |-55555555-55555555-77777777-3333-5555--| 
A |-33333333-22222222-77777777-3333-5555--| 
E |-------------------55555555-1111-3333--| 

(guitar 2) 
E |------------------------------------------------------------------------| 
B |------------------------------------------------------------------------| 
G |---------------------------------------------11-11-11-11----------------|x2 
D |-11-9-9--11-9-9-9-9-8-8-8-8-8-8-----8-8-9-9---------------8h9-9-8h9-9---| 
A |------------------------------------------------------------------------| 
E |------------------------------------------------------------------------| 

(before verse 2) 
(guitar 1) 
E |--------------------| 
B |--------------------| 
G |------4-55555-------|x2 
D |-7777-5-55555-33----| 
A |-7777-2-33333-33----| 
E |-5555---------11----| 

(guitar 2) 
E |-------------------------------------------------------------------------------| 
B |------------------------------------------12-11-12-11--------------------------| 
G |------------------------------------------------------11--6-6--8-9-8--9/11-----| 
D |-9-8-9-8------11-11--13-14-13--------------------------------------------------| 
A |----------9--------------------11-11-11----------------------------------------| 
E |-------------------------------------------------------------------------------| 

(verse 2) (same as verse 1) 

(Chorus) 

(after Chorus) 
(guitar 1) 
E |--------------------| 
B |--------------------| 
G |------4-55555-------|x4 
D |-7777-5-55555-33----| 
A |-7777-2-33333-33----| 
E |-5555---------11----| 

(guitar 2) 
E |---------------------------------------------------------------------------| 
B |------------------------------------------12-11-12-11----------------------| 
G |------------------------------------------------------11--6-6--8-9-8-------| 
D |-9-8-9-8------11-11--13-14-13----------------------------------------------| 
A |----------9--------------------11-11-11------------------------------------| 
E |---------------------------------------------------------------------------| 

(then) 
E |----------------------------------19-18------14-16-14-------| 
B |---12-14-12------16-14-12------16---------16----------------| 
G |-----------------------------13------------------------13---| 
D |-13-----------14--------------------------------------------| 
A |------------------------------------------------------------| 
E |------------------------------------------------------------| 

(before bridge) 
I wanna know what it'd be like... 
(guitar 1) 
E |-----------------| 
B |-----------------| 
G |-----5---7-------|x2 
D |-7---5---7---3---| 
A |-7---3---5---3---| 
E |-5-----------1---| 

(guitar 2) 
E |-0---0---1---0---| 
B |-1---1---3---1---| 
G |-2---0---2---0---|x2 
D |-2---2---0---3---| 
A |-0---3-------3---| 
E |-----------------| 

(bridge) 
Again, again..... 
(guitar 1) 
E |-------------------------------------| 
B |-------------------------------------| 
G |----------5-5-5-5--------------------|x2 
D |-7-7-7-7--5-5-5-5--3-3-3-3--5-5-5-5--| 
A |-7-7-7-7--3-3-3-3--3-3-3-3--5-5-5-5--| 
E |-5-5-5-5-----------1-1-1-1--3-3-3-3--| 

(guitar 2 - x2) 
E |------------------------|  |-------------------------------------------| 
B |------------------------|x2|-------------------------------------------| 
G |------------------------|  |-------------------------------------------| 
D |-11-9-9--11-9-9-9-9-9---|  |-11-9-9--11-9-9-9-9-9-9-8-8-8-8-8-8-8-8----| 
A |------------------------|  |-------------------------------------------| 
E |------------------------|  |-------------------------------------------| 

(Chorus) 
And the worst part is.... 
E |---------------------------------------| 
B |---------------------------------------| 
G |-55555555-44444444---------------------|x4 
D |-55555555-55555555-77777777-3333-5555--| 
A |-33333333-22222222-77777777-3333-5555--| 
E |-------------------55555555-1111-3333--| 

(guitar 2) 
E |------------------------------------------------------------------------| 
B |------------------------------------------------------------------------| 
G |---------------------------------------------11-11-11-11----------------|x2 
D |-11-9-9--11-9-9-9-9-8-8-8-8-8-8-----8-8-9-9---------------8h9-9-8h9-9---| 
A |------------------------------------------------------------------------| 
E |------------------------------------------------------------------------| 

(then) x2 
E |-------------------|  |----------------------------------| 
B |---------7--4-4-4--|x2|----------------------------------| 
G |--8-6-6------------|  |-3-3-4-4-6-6-6-6---3-3-3-3-4-4-4--| 
D |-------------------|  |----------------------------------| 
A |-------------------|  |----------------------------------| 
E |-------------------|  |----------------------------------| 

(end with) 
(guitar 1) x4 
E |------------------------|  |-------------------------------------------| 
B |------------------------|x2|-------------------------------------------| 
G |------------------------|  |-------------------------------------------| 
D |-11-9-9--11-9-9-9-9-9---|  |-11-9-9--11-9-9-9-9-9-9-8-8-8-8-8-8-8-8----| 
A |------------------------|  |-------------------------------------------| 
E |------------------------|  |-------------------------------------------| 

(guitar 2)(starts at 3.46) 
E |-11------11------12---11------11-14-12--11------11------12--------------------------| 
B |---12-12---12-12---12---12-12-------------12-12---12-12---12--14-12-12-14-12-12--14-|x3 
G |------------------------------------------------------------------------------------| 
D |------------------------------------------------------------------------------------| 
A |------------------------------------------------------------------------------------| 
E |------------------------------------------------------------------------------------| 

E |-11------11------12---11------11-14-12--11------11------12--------------------------11-| 
B |---12-12---12-12---12---12-12-------------12-12---12-12---12--14-12-12-14-12-12--14-12-| 
G |---------------------------------------------------------------------------------------| 
D |---------------------------------------------------------------------------------------| 
A |---------------------------------------------------------------------------------------| 
E |---------------------------------------------------------------------------------------| 
	  

No existe una video leccione para esta canción

request
LosAcordes
Buscar
auto avanzar rasgueos aumentar disminuir cambiar color esconder acordes gráficos
losacordes exhibir acordes losacordes youTube video losacordes ocultar tabs losacordes ir hacia arriba losacordes