Paramore

Início > Paramore > acordes

Here We Go Again Tablatura

Paramore

Dificultad:ExpertoExperto

tuner correct add songbook print version text version salvar en e-mail
acordesukuleletablaturabaixobateríaarmónicaflautacavacopiano Guitar Pro
acordes

Here We Go Again

Áño: 2005 - Álbum: All We Know Is Falling

	  Intro/Pre-verso: 
E|-----------------------------------------------| 
B|-----------------------------------------------| 
G|-----------------------------------------------| 
D|--9-9---6---------------9-9---6----------------| 
A|------9---7-6-6-6/7/6-------9---7-6------------| 
E|------------------------------------7-7/9-9----| 
 
Verso: 
 
guitar 1 
E|-----------------------------------------------| 
B|-----------------------------------------------| 
G|--2-2-2-2-6-6-6-6------------------------------| 
D|--2-2-2-2-6-6-6-6------------------------------| 
A|--0-0-0-0-4-4-4-4------------------------------| 
E|-----------------------------------------------| 
 
guitar 2 
E|-----------------------------------------------| 
B|--9---10---12---12---12---12---12---12---------| 
G|----9----9----9----9----9----9----9----9-------| 
D|-----------------------------------------------| 
A|-----------------------------------------------| 
E|-----------------------------------------------| 
 
Refrão: 
 
guitar 1 
E|-----------------------------------------------| 
B|-----------------------------------------------| 
G|--2---------6--------8-------------------------| 
D|--2-(x16)---6-(x8)---8-(x8)--------------------| 
A|--0---------4--------6-------------------------| 
E|-----------------------------------------------| 
 
guitar 2 
E|---12-(x4)---11-(x12)---9-(x16)----------------| 
B|-----------------------------------------------| 
G|-----------------------------------------------| 
D|-----------------------------------------------| 
A|-----------------------------------------------| 
E|-----------------------------------------------| 
 
Solo 
 
guitar 1 
E|---------------------------------------|--------| 
B|---------------------------------------|--------| 
G|--2---------6--------8-----------------|--2-----| 
D|--2-(x16)---6-(x8)---8-(x8)------------|--2-----| 
A|--0---------4--------6-----------------|--0-----| 
E|---------------------------------------|--------| 
 
guitar 2 
E|-------------------------------------------------| 
B|-------------------------------------------------| 
G|-------------------------------------------------| 
D|--9-9---6---------------9-9---6------------------| 
A|------9---7-6-6-6/7/6-------9---7-7-7-7-6-6-6-6--| 
E|-------------------------------------------------| 
 
E|-------------------------7-7-------------------| 
B|--9-9-9-7-7-9-9-7--(x4)------10-10-9-9---------| 
G|-----------------------------------------------| 
D|-----------------------------------------------| 
A|-----------------------------------------------| 
E|-----------------------------------------------| 
 
E|-----------------------------------------------| 
B|--9-9-9-7-7-9-9-7--(x4)------------------------| 
G|------------------------9-9-9-9-8-8-8-8--------| 
D|-----------------------------------------------| 
A|-----------------------------------------------| 
E|-----------------------------------------------| 
 
E|-----------------------------------------------| 
B|--9-9-9-9-10-10-10-10-12-12-12-12-10-10-9-9----| 
G|-----------------------------------------------| 
D|-----------------------------------------------| 
A|-----------------------------------------------| 
E|-----------------------------------------------| 
 
E|--12-(x4)-11-(x12)--9--------------------------| 
B|-----------------------------------------------| 
G|-----------------------------------------------| 
D|-----------------------------------------------| 
A|-----------------------------------------------| 
E|-----------------------------------------------| 
                                              
E|-----16--------16-------16----14----16-----|--12--| 
B|--14----14--14----14-14----14----14----14--|------| 
G|-------------------------------------------|------| 
D|-------------------------------------------|------| 
A|-------------------------------------------|------| 
E|-------------------------------------------|------| 

	  

No existe una video leccione para esta canción

request
LosAcordes
Buscar
auto avanzar rasgueos aumentar disminuir cambiar color esconder acordes gráficos
losacordes exhibir acordes losacordes youTube video losacordes ocultar tabs losacordes ir hacia arriba losacordes