Ok go

Início > Ok go > acordes

Here it goes again Tablatura

Ok go

Dificultad:Ningún gradoNingún grado

europeu

tuner correct add songbook print version text version salvar en e-mail
acordesukuleletablaturabajobateríaarmónicaflautacavacopiano Guitar Pro
acordes

Here it goes again

	  Tuning: Standard 
For the intro and verse play the first note then palm mute the rest but ease of the mute and play softly. 
 
Intro Part 1 
PM  - - - - - - - - - - - - - - - 
e|---------------------------------------------------------------------------| 
B|---------------------------------------------------------------------------| 
G|5-5-5-5-5-5-5-5-5-5-5-5-5-5-5-5--------------------------------------------| 
D|5-5-5-5-5-5-5-5-5-5-5-5-5-5-5-5--------------------------------------------| 
A|3-3-3-3-3-3-3-3-3-3-3-3-3-3-3-3--------------------------------------------| 
E|---------------------------------------------------------------------------| 
 
Intro Part 2 
e|---------------------------------------------------------------------------| 
B|---------------------------------------------------------------------------| 
G|5-5---------3-3------------------------------------------------------------| 
D|5-5-5-5--5--3-3-3-3--3-----------------------------------------------------| 
A|3-3-5-5--5--1-1-3-3--3-----------------------------------------------------| 
E|----3-3--3------1-1--1-----------------------------------------------------| 
 
Verse  
Play the chords below then palm mute the numbers 
e|---------------------------------------------------------------------------| 
B|---------------------------------------------------------------------------| 
G|5---------------3----------------------------------------------------------| 
D|5-x7---5-5------3-x7---3-3-------------------------------------------------| 
A|3------5-5-x6---1------3-3-x6----------------------------------------------| 
E|-------3-3-------------1-1-------------------------------------------------| 
 
Play these Normally 
Pre-Chorus 
e|---------------------------------------------------------------------------| 
B|---------------------------------------------------------------------------| 
G|---------------------------------------------------------------------------| 
D|2----7----2----7----5------------------------------------------------------| 
A|2-x8-7-x8-2-x8-7-x4-5-x4---------------------------------------------------| 
E|0----5----0----5----3------------------------------------------------------| 
 
Chorus Part 1 
e|---------------------------------------------------------------------------| 
B|---------------------------------------------------------------------------| 
G|5-5---------3-3------------------------------------------------------------| 
D|5-5-5-5--5--3-3-3-3--3--7-7-5-5--5-----------------------------------------| 
A|3-3-5-5--5--1-1-3-3--3--7-7-5-5--5-----------------------------------------| 
E|----3-3--3------1-1--1--5-5-3-3--3-----------------------------------------| 
 
Chorus Part 2 
e|---------------------------------------------------------------------------| 
B|---------------------------------------------------------------------------| 
G|---------------------------------------------------------------------------| 
D|6--------------------------------------------------------------------------| 
A|6-x16----------------------------------------------------------------------| 
E|4--------------------------------------------------------------------------| 
 
Interlude 
e|---------------------------------------------------------------------------| 
B|---------------------------------------------------------------------------| 
G|8-----7-----5--------------------------------------------------------------| 
D|8-x16-7-x16-5-x8-5---------------------------------------------------------| 
A|6-----5-----3----5-x8------------------------------------------------------| 
E|-----------------3---------------------------------------------------------| 
 
Song Order 
 
Intro Part 1 
Intro Part 2 
Verse x2 
Intro Part 2  
Pre-Chorus  
Chorus Part 1 x2 
Chorus Part 2 
Intro Part 1 
Verse x2 
Intro Part 2 
Pre-Chorus 
Chorus Part 1 x3 
Chorus Part 2 
Interlude x2 
Chorus Part 1 x1 
Verse x2 
Chorus Part 1 x8 
Chorus Part 2 
Interlude (end of first chord) 
 
| /  slide up 
| \  slide down 
| h  hammer-on 
| p  pull-off 
| ~  vibrato 
| +  harmonic 
| x  Mute note 
 

	  

No existe una video leccione para esta canción

request
LosAcordes
Buscar
auto avanzar rasgueos aumentar disminuir cambiar color esconder acordes gráficos
losacordes exhibir acordes losacordes youTube video losacordes ocultar tabs losacordes ir hacia arriba losacordes