Nirvana

Início > Nirvana > acordes

Serve The Servants Tablatura

Nirvana

Dificultad:PrincipiantePrincipiante

tuner correct add songbook print version text version salvar en e-mail
acordesukuleletablaturabajobateriaarmónicaflautacavacopiano Guitar Pro
acordes

Serve The Servants

Áño: 1993 - Álbum: In Utero

	  INTRO: 
 
                      
1|--x----x----x----0-----|----12---------------------------------| 
2|--x----x----x----0-----|-------12------------------------------| 
3|--x----x----x---14-----|---------------|DRUMS GO IN|-----------| 
4|--x----x----x---13-----|---------------------------------------| 
5|--x----x----x---14-----|---------------------------------------| 
6|--x----x----x----0-----|---------------------------------------| 
 
 
VERSE: 
 
                               E9 
1|------------------------|----------------------------| 
2|------------------------|-----------3-------3--------| 
3|-------2-------2--------|-------1----------------1---| 
4|----1---------------1---|--2-2----------2------------| 
5|-2---------2------------|----------------------------| 
6|------------------------|----------------------------| 
   teenage angst... 
 
 
  F#5 F#sus2  E 
1|------0---------0---------------------------| 
2|------0---------0---------------------------| 
3|------3---------1---------------------------| 
4|--4---4----2--------------------------------| 
5|--4---4----2--------------------------------| 
6|--2---2----0--------------------------------| 
        ...old. 
 
 
CHORUS: 
           A                    C# 
1|-----------------------------------------------| 
2|-----------------------------------------------| 
3|------------------------6--6--6--6---6---6-----| 
4|---7--7--7--7---7---7---6--6--6--6---6---6-----| 
5|---7--7--7--7---7---7---4--4--4--4---4---6-----| 
6|---5--5--5--5---5---5--------------------------| 
                serve the servants.... 
 
BRIDGE: 
             F#                       C                 
1|---------------------------------------------------|--0----| 
2|---------------------------------------------------|--0----| 
3|-----------------------------/-5--5--5--5--5--5----|--2----| 
4|--4--4--4--4--4--4--4--4--4--/-5--5--5--5--5--5----|--1----| 
5|--4--4--4--4--4--4--4--4--4--/-3--3--3--3--3--3----|--2----| 
6|--2--2--2--2--2--2--2--2--2------------------------|--0----| 
  that legendary...                                 ...bore. 
 
 
_______________________________________________________ 
Contribuição: ([email protected]) 
	  

No existe una video leccione para esta canción

request
Aumentar uno tonoAumentar uno tono
Aumentar uno semi-tonoAumentar uno semi-tono
Disminuir uno semi-tonoDisminuir uno semi-tono
Disminuir uno tonoDisminuir uno semi-tono
LosAcordes
Buscar
auto avanzar rasgueos aumentar disminuir cambiar color esconder acordes gráficos
losacordes exhibir acordes losacordes youTube video losacordes ocultar tabs losacordes ir hacia arriba losacordes