Nirvana

Início > Nirvana > acordes

Come as You Are (Completa) Tablatura

Nirvana

Dificultad:PrincipiantePrincipiante

Helison_Noturno

tuner correct add songbook print version text version salvar en e-mail
acordesukuleletablaturabajobateríaarmónicaflautacavacopiano Guitar Pro
acordes

Come as You Are (Completa)

	  NIRVANA_COME AS YOU ARE (TABLATURA) 
 
Códigos: 
 
) = bend (puxada curta) 
/ = slide para cima 
\ = slide para baixo 
PM = abafar 
(x) = raspar o dedo 
~ = vibrato 
/\/\/\ = vibrato 
Trem = tocar a nota o mais rápido possivel 
 
 
INTRO 
 
e|-------------------------------------------------------------------------- 
B|-------------------------------------------------------------------------- 
G|-------------------------------------------------------------------------- 
D|-------------------------------------------------------------------------- 
A|-------------0----0-------------2----------2------------------------------ 
E|--0--0--1--2----2---2--2--1--0-----0--0------0--1------------------------- 
 
e|-------------------------------------------------------------------------- 
B|-------------------------------------------------------------------------- 
G|-------------------------------------------------------------------------- 
D|-------------------------------------------------------------------------- 
A|----0---0--------------2-----2-------------------------------------------- 
E|--2----2---2--2--1--0-----0----0--1--------------------------------------- 
 
 
LETRA 
 
e|-------------------------------------------------------------------------- 
B|-------------------------------------------------------------------------- 
G|-------------------------------------------------------------------------- 
D|-------------------------------------------------------------------------- 
A|-----0-----0-------------2-------2---------------------------------------- 
E|--2-----2----2--2--1--0----0--0-----0--1---------------------------------- 
 
 
TOCAR 9 VEZES 
 
e|--------------------------------0--0--0--0-------------------------------- 
B|--------------------------------0--0--0--0-------------------------------- 
G|--------------------------------1--1--1--1-------------------------------- 
D|-------------------------------------------------------------------------- 
A|----0-----0-----------2--------------------------------------------------- 
E|--2----2-----2--1--0------0----------------------------------------------- 
 
 
Refrão 
 
e|--------0----------------------------------------------------------------- 
B|--------0---------------2-----2-----2-----2------------------------------- 
G|---------------------2--2--2--2--2--2--2--2--0---------------------------- 
D|--4---------4--4-----2--2--2--2--2--2--2--2--0---------------------------- 
A|--4---------4--4--0--0-----0-----0-----0-----0---------------------------- 
E|--2---------2--2--0------------------------------------------------------- 
 
 
TOCAR TRÊS VEZES 
 
e|--------0----------------------------------------------------------------- 
B|--------0---------------2-----2------------------------------------------- 
G|---------------------2--2--2--2--2---------------------------------------- 
D|--4---------4--4-----2--2--2--2--2---------------------------------------- 
A|--4---------4--4--0--0-----0-----0---------------------------------------- 
E|--2---------2--2--0--------------------0--0--1--2------------------------- 
 
 
PASSAGEM CENTRAL 
 
e|---------------------0--0--0-0-0-0---------------------------------------- 
B|------------------0--3--3--3-3-3------------------------------------------ 
G|--4--4--4--4-4-4--0--2--2------2------------------------------------------ 
D|--4--4--4--4-4-4--0--0--0------0------------------------------------------ 
A|--2--2--2--2-2-2--0------------------------------------------------------- 
E|-------------------------------------------------------------------------- 
 
 
TOCAR TRÊS VEZES 
 
e|---------------------0--0--0--0------------------------------------------- 
B|------------------0--3--3--3--3------------------------------------------- 
G|--4--4--4--4-4-4--0--2--2-----2------------------------------------------- 
D|--4--4--4--4-4-4--0--0--0-----0------------------------------------------- 
A|--2--2--2--2-2-2--0------------------------------------------------------- 
E|-------------------------------------------------------------------------- 
 
 
SOLO 
 
e|-------------------------------------------------------------------------- 
B|-----------------------------------------------------------12)------------ 
G|--2--2--6~~~--9--11\6--6~~~--9--11\6--6~~~--9--11--11--11--11~~--9--6----- 
D|-------------------------------------------------------------------------- 
A|-------------------------------------------------------------------------- 
E|-------------------------------------------------------------------------- 
 
e|-------------------------------------------------------------------------- 
B|-----------------------------------------------------12)------------------ 
G|--6~~~--9--11\6--6~~~--9--11\6--6~~~--9--11--11--11--11~~--9-------------- 
D|-------------------------------------------------------------------------- 
A|-------------------------------------------------------------------------- 
E|-------------------------------------------------------------------------- 
 
 
TOCAR TRÊS VEZES (ATÉ O FINAL) 
 
e|--0----------------------------------------------------------------------- 
B|--0----------------------------------------------------------------------- 
G|--x----------------------------------------------------------------------- 
D|--4----------------------------------------------------------------------- 
A|--4----------------------------------------------------------------------- 
E|--2----------------------------------------------------------------------- 
 
FIM 
 
 

	  

No existe una video leccione para esta canción

request
LosAcordes
Buscar
auto avanzar rasgueos aumentar disminuir cambiar color esconder acordes gráficos
losacordes exhibir acordes losacordes youTube video losacordes ocultar tabs losacordes ir hacia arriba losacordes