Nat King Cole

Início > Nat King C... > acordes

Autumn Leaves Tablatura

Nat King Cole

Dificultad:ExpertoExperto

europeu

tuner correct add songbook print version text version salvar en e-mail
acordesukuleletablaturabajobateríaarmónicaflautacavacopiano Guitar Pro
acordes

Autumn Leaves

	    	  
Tuning: EADGBE	Time Signature: 4/4 

 |       |       |       |        |       |       |       |         
|--------0-------2-------3-------|8-------------------------------| 
|--------------------------------|8-------------------------------| 
|--------------------------------|9-------------------------------| 
|--------------------------------|7-------------------------------| 
|--------------------------------|--------------------------------| 
|--------------------------------|--------------------------------| 

 |       |       |       |        |       |       |       |         
|--------------------------------|7---------------7---------------| 
|------------------------7-------|7---------------7---------------| 
|--------7-------9---------------|7---------------7---------------| 
|--------------------------------|5---------------5---------------| 
|--------------------------------|--------------------------------| 
|--------------------------------|--------------------------------| 

 |       |       |       |        |       |       |       |         
|------------------------0-------|5-------------------------------| 
|--------------------------------|5-------------------------------| 
|--------5-------7---------------|5-------------------------------| 
|----5---------------------------|4-------------------------------| 
|--------------------------------|--------------------------------| 
|5-------------------------------|--------------------------------| 

 |       |       |       |        |       |       |       |         
|--------------------------------|--------------------------------| 
|------------------------4-------|------------------------0-------| 
|--------4-------6---------------|----------------0---------------| 
|--------------------------------|--------2-----------------------| 
|--------------------------------|--------------------------------| 
|--------------------------------|0-------------------------------| 

 |       |       |       |        |       |       |       |         
|0-------0-------2-------3-------|8-------------------------------| 
|0-------------------------------|8-------------------------------| 
|0-------------------------------|9-------------------------------| 
|2-------------------------------|7-------------------------------| 
|2-------------------------------|--------------------------------| 
|0-------------------------------|--------------------------------| 

 |       |       |       |        |       |       |       |         
|--------------------------------|7---------------7---------------| 
|7-----------------------7-------|7---------------7---------------| 
|--------7-------9---------------|7---------------7---------------| 
|--------------------------------|5---------------5---------------| 
|--------------------------------|--------------------------------| 
|--------------------------------|--------------------------------| 

 |       |       |       |        |       |       |       |         
|------------------------0-------|5-------------------------------| 
|--------------------------------|5-------------------------------| 
|--------5-------7---------------|5-------------------------------| 
|----5---------------------------|4-------------------------------| 
|--------------------------------|--------------------------------| 
|5-------------------------------|--------------------------------| 

 |       |       |       |        |       |       |       |         
|--------2-------5-------3-------|--------------------------------| 
|--------0-------4-------4-------|------------------------0-------| 
|--------2-------4-------4-------|----------------0---------------| 
|--------1-------4-------5-------|--------2-----------------------| 
|--------3-----------------------|--------------------------------| 
|--------------------------------|0-------------------------------| 

 |       |       |       |        |       |       |       |         
|0-------0---------------0-------|2---------------2---------------| 
|0---------------4---------------|0-------0-----------------------| 
|0-------------------------------|2-----------------------3-------| 
|2-------------------------------|1-----------------------2-------| 
|2-------------------------------|2-----------------------3-------| 
|0-------------------------------|--------------------------------| 

 |       |       |       |        |       |       |       |         
|--------2-------0-------2-------|3---------------3---------------| 
|--------0---------------0-------|5---------------5---------------| 
|2-------2---------------2-------|4---------------4---------------| 
|1-------------------------------|5---------------5---------------| 
|2-------------------------------|3---------------3---------------| 
|--------------------------------|--------------------------------| 

 |       |       |       |        |       |       |       |         
|--------3-------2-------3-------|5-------------------------------| 
|--------5-------4-------5-------|5---------------3---------------| 
|--------4-------3-------4-------|5---------------5---------------| 
|--------5-------4-------5-------|5---------------4---------------| 
|--------------------------------|----------------5---------------| 
|--------------------------------|--------------------------------| 

 |       |       |       |        |       |       |       |         
|10--------------8---------------|7-------------------------------| 
|7---------------7---------------|7-------------------------------| 
|8---------------8---------------|7-------------------------------| 
|7---------------7---------------|5-------------------------------| 
|--------------------------------|--------------------------------| 
|--------------------------------|--------------------------------| 

 |       |       |       |        |       |       |       |         
|7---------------5-------7-------|8-------8-------5-------5-------| 
|7-------------------------------|7-------7-------4-------4-------| 
|7-------------------------------|8-------8-------5-------5-------| 
|6-------------------------------|7-------7-------4-------4-------| 
|--------------------------------|--------------------------------| 
|--------------------------------|--------------------------------| 

 |       |       |       |        |       |       |       |         
|2---------------8---------------|7---------------7---------------| 
|1---------------7---------------|7---------------7---------------| 
|2---------------8---------------|7---------------7---------------| 
|1---------------7---------------|5---------------5---------------| 
|--------------------------------|--------------------------------| 
|--------------------------------|--------------------------------| 

 |       |       |       |        |       |       |       |         
|----------------12------0-------|--------5-------4-------3-------| 
|--------12----------------------|--------5-------4-------3-------| 
|----12--------------------------|--------3-------3-------3-------| 
|11------------------------------|--------2-------2-------2-------| 
|--------------------------------|3-------------------------------| 
|--------------------------------|--------------------------------| 

 |       |       |       |        |       |       |       |         
|--------2-------3-------2-------|--------------------------------| 
|--------0---------------0-------|------------------------0-------| 
|--------2---------------2-------|----------------2---------------| 
|--------1---------------1-------|--------2-----------------------| 
|2-------------------------------|----2---------------------------| 
|--------------------------------|0-------------------------------| 

 |       |       |       |        |       |       |       |         
|0-------------------------------|--------0---------------0-------| 
|0-------------------------------|--------7---------------5-------| 
|0-------------------------------|--------5---------------4-------| 
|2-------------------------------|7---------------5---------------| 
|2-------------------------------|--------------------------------| 
|--------------------------------|--------------------------------| 

 |       |       |       |        |       |       |       |         
|--------0---------------0-------|--------0---------------0-------| 
|--------4---------------5-------|--------7---------------5-------| 
|--------2---------------4-------|--------5---------------4-------| 
|4---------------5---------------|7---------------5---------------| 
|--------------------------------|--------------------------------| 
|--------------------------------|--------------------------------| 

 |       |       |       |        |       |       |       |         
|--------0-------0---------------|--------0-------2-------3-------| 
|--------4-------5---------------|--------------------------------| 
|--------2-------4---------------|--------------------------------| 
|4---------------5---------------|--------------------------------| 
|--------------------------------|--------------------------------| 
|--------------------------------|--------------------------------| 

 |       |       |       |        |       |       |       |         
|----8-----------8---------------|----8-----------8---------------| 
|--------8-----------8-------8---|--------7-----------7-------7---| 
|------------9-----------9-------|------------7-----------7-------| 
|7-------------------------------|7-------------------------------| 
|--------------------------------|--------------------------------| 
|--------------------------------|--------------------------------| 

 |       |       |       |        |       |       |       |         
|----7-----------7---------------|----7-----------7---------------| 
|--------7-----------7-------7---|--------5-----------5-------5---| 
|------------7-----------7-------|------------5-----------5-------| 
|5-------------------------------|5-------------------------------| 
|--------------------------------|--------------------------------| 
|--------------------------------|--------------------------------| 

 |       |       |       |        |       |       |       |         
|----5-----------5---------------|----5-----------5---------------| 
|--------5-----------5-------5---|--------4-----------4-------4---| 
|------------5-----------5-------|------------4-----------4-------| 
|4-------------------------------|4-------------------------------| 
|--------------------------------|--------------------------------| 
|--------------------------------|--------------------------------| 

 |       |       |       |        |       |       |       |         
|0-------0-------2-------2-------|3---0---------------------------| 
|0-------0-------0-------0-------|--------3---0-------------------| 
|0-------0-------2-------2-------|----------------2---0-----------| 
|2-------2-------1-------1-------|------------------------2---0---| 
|2-------2-------2-------2-------|--------------------------------| 
|--------------------------------|--------------------------------| 

 |       |       |       |        |       |       |       |         
|8-------8-------8-------8-------|7-------7-------7-------7-------| 
|8-------8-------7-------7-------|7-------7-------5-------5-------| 
|9-------9-------7-------7-------|7-------7-------5-------5-------| 
|7-------7-------7-------7-------|5-------5-------5-------5-------| 
|--------------------------------|--------------------------------| 
|--------------------------------|--------------------------------| 

 |       |       |       |        |       |       |       |         
|5-------5-------5---2---3-------|0-----------------------0-------| 
|5-------5-------4---------------|0---------------4---------------| 
|5-------5-------4---------------|0-------------------------------| 
|4-------4-------4---------------|2-------------------------------| 
|--------------------------------|2-------------------------------| 
|--------------------------------|0-------------------------------| 

 |       |       |       |        |       |       |       |         
|2---------------2---------------|--------2-------0-------2-------| 
|0-------0-----------------------|--------0---------------0-------| 
|2-----------------------3-------|2-------2---------------2-------| 
|1-----------------------2-------|1-------------------------------| 
|2-----------------------3-------|2-------------------------------| 
|--------------------------------|--------------------------------| 

 |       |       |       |        |       |       |       |         
|3---------------3---------------|--------3-------2-------3-------| 
|5---------------5---------------|--------5-------4-------5-------| 
|4---------------4---------------|--------4-------3-------4-------| 
|5---------------5---------------|--------5-------4-------5-------| 
|3---------------3---------------|--------------------------------| 
|--------------------------------|--------------------------------| 

 |       |       |       |        |       |       |       |         
|5-------------------------------|10--------------8---------------| 
|5---------------3---------------|7---------------7---------------| 
|5---------------5---------------|8---------------8---------------| 
|5---------------4---------------|7---------------7---------------| 
|----------------5---------------|--------------------------------| 
|--------------------------------|--------------------------------| 

 |       |       |       |        |       |       |       |         
|7-------------------------------|7---------------5-------7-------| 
|7-----------------------7-------|7-------------------------------| 
|7---------------7---------------|7-------------------------------| 
|5-------5-----------------------|6-------------------------------| 
|--------------------------------|--------------------------------| 
|--------------------------------|--------------------------------| 

 |       |       |       |        |       |       |       |         
|8-------8-------5-------5-------|2---------------8---------------| 
|7-------7-------4-------4-------|1---------------7---------------| 
|8-------8-------5-------5-------|2---------------8---------------| 
|7-------7-------4-------4-------|1---------------7---------------| 
|--------------------------------|--------------------------------| 
|--------------------------------|--------------------------------| 

 |       |       |       |        |       |       |       |         
|7-------7-----------------------|----------------12------0-------| 
|7-------7-----------------------|--------12----------------------| 
|7-------7-----------------------|----12--------------------------| 
|5-------5-----------------------|11------------------------------| 
|--------------------------------|--------------------------------| 
|--------------------------------|--------------------------------| 

 |       |       |       |        |       |       |       |         
|--------5-------4-------3-------|--------2-------3-------2-------| 
|--------5-------4-------3-------|--------0---------------0-------| 
|--------3-------3-------3-------|--------2---------------2-------| 
|--------2-------2-------2-------|--------1---------------1-------| 
|3-------------------------------|2-------------------------------| 
|--------------------------------|--------------------------------| 

 |       |       |       |        |       |       |       |         
|--------------------------------|0-------0-------2-------3-------| 
|------------------------0-------|0-------------------------------| 
|----------------0---------------|0-------------------------------| 
|--------2-----------------------|2-------------------------------| 
|--------------------------------|2-------------------------------| 
|0-------------------------------|--------------------------------| 

 |       |       |       |        |       |       |       |         
|8-------------------------------|8-------------------------------| 
|8-------------------------------|7-----------------------7-------| 
|9-------------------------------|7-------7-------9---------------| 
|7-------------------------------|7-------------------------------| 
|--------------------------------|--------------------------------| 
|--------------------------------|--------------------------------| 

 |       |       |       |        |       |       |       |         
|7---------------7---------------|------------------------0-------| 
|7---------------7---------------|--------------------------------| 
|7---------------7---------------|--------5-------7---------------| 
|5---------------5---------------|----5---------------------------| 
|--------------------------------|--------------------------------| 
|--------------------------------|5-------------------------------| 

 |       |       |       |        |       |       |       |         
|5-------------------------------|5-------2-------5-------3-------| 
|5-------------------------------|4-------0-------4-------4-------| 
|5-------------------------------|4-------2-------4-------4-------| 
|4-------------------------------|4-------1-------4-------5-------| 
|--------------------------------|--------3-----------------------| 
|--------------------------------|--------------------------------| 

 |       |       |       |        |       |       |       |         
|--------------------------------|0-------------------------------| 
|------------------------0-------|0-------------------------------| 
|----------------0---------------|0-------------------------------| 
|--------2-----------------------|2-------------------------------| 
|--------------------------------|0-------------------------------| 
|0-------------------------------|--------------------------------| 

 |       |       |       |        |       |       |       |         
|12--10----------3p--0-----------|--------------------------------| 
|--------12--10----------3p--0---|--------------------------------| 
|--------------------------------|2p--0---------------------------| 
|--------------------------------|--------2p--0-------------------| 
|--------------------------------|----------------2p--0-----------| 
|--------------------------------|------------------------2/--3---| 

 |       |       |       |        |       |       |       |         
|--------------------------------|--------12{---------------------| 
|--------------------------------|0-------12{---------------------| 
|------------------------0-------|--------12{---------------------| 
|----------------2---------------|--------12{---------------------| 
|--------2-----------------------|--------12{---------------------| 
|0-------------------------------|--------------------------------| 




	  

No existe una video leccione para esta canción

request
LosAcordes
Buscar
auto avanzar rasgueos aumentar disminuir cambiar color esconder acordes gráficos
losacordes exhibir acordes losacordes youTube video losacordes ocultar tabs losacordes ir hacia arriba losacordes