Narnia

Início > Narnia > acordes

Jugament Day Tablatura

Narnia

Dificultad:ExpertoExperto

iva...

tuner correct add songbook print version text version salvar en e-mail
acordesukuleletablaturabajobateríaarmónicaflautacavacopiano Guitar Pro
acordes

Jugament Day

	  Afine a guitar em D# 


  Introdução do teclado feita na guitarra 
E---7p0-7-10p0-8-7----/10p0-8p0-7p0-5p0--7p0-7-10p0-8-7----/10p0-8p0-7p0-5p0--7p0-7-| 
B------------------10-----------------------------------10--------------------------| 
G-----------------------------------------------------------------------------------| 
D-----------------------------------------------------------------------------------| 
A-----------------------------------------------------------------------------------| 
E-----------------------------------------------------------------------------------| 

                                                                        Riff 1 
E-10p0-8-7----/10p0-8p0-7p0-5p0--7p0-7-10p0-8-7----/10p0-8p0-7p0-5p0----------------| 
B----------10-----------------------------------10--------------------|-------------| 
G---------------------------------------------------------------------|*------------| 
D---------------------------------------------------------------------|*------------| 
A---------------------------------------------------------------------|-------------| 
E------------------------------------------------------------------------0-0-0-0-0-0| 
                                                                        pm.......... 

E-----------------------------------------------------------------------------------| 
B-----------------------------------------------------------------------------------| 
G-----------------------------------------------------------------------------------| 
D-----------------------------------------------------------------------------------| 
A-----------------------------------------------------/3-3-3-3-3-3-3-3-3-3-3-3-3-3-3| 
E-0-0-0-0-0-0-0-0-0-0-0-0-0-0-0-0-0-0-0-0-0-0-0-0-0-0-------------------------------| 
 ................................................................................... 

                      (end Riff 1) x2 
E-----------------------------------------------------------------------------------| 
B-------------------------------------|---------------------------------------------| 
G------------------------------------*|---------------------------------------------| 
D------------------------------------*|---------------------------------------------| 
A-3-\0-0-0-0-0-0-0-0-0-0-0-0-0-0-0-0--|---------------------------------------------| 
E----------------------------------------0-0-0-0--0-0-0-0--0-0-0--0-0-0-0--0-0--0-0-| 
 ...................................|   pm.......................................... 

E-----------------------------------------------------------------------------------| 
B-----------------------------------------------------------------------------------| 
G-----------------------------------------------------------------------------------| 
D-----------------------------------------------------------------------------------| 
A-----------------------------------------------------------------------------------| 
E--0-0-0-0--0-0-0-0--0-0-0--0-0-0-0--0-0--0-0--0-0-0-0--0-0-0-0--0-0-0--0-0-0-0--0-0| 
 ................................................................................... 

                                      (end Intro)    Verse 1 
E-------------------------------------------------||--------------------------------| 
B-------------------------------------------------||--------------------------------| 
G------------------------------------------/-3~---||*-------------------------------| 
D------------------------------------------/-1~---||*-------------------------------| 
A-------------------------------------------------||--------------------------------| 
E--0-0--0-0-0-0--0-0-0-0--0-0-0--0-0-0-0----------||---0-0-0-0--0-0-0-0--0-0-0--0-0-| 
 .......................................|             pm............................ 

E-----------------------------------------------------------------------------------| 
B-----------------------------------------------------------------------------------| 
G-----------------------------------------------------------------------------------| 
D-----------------------------------------------------------------------------------| 
A-----------------------------------------------------------------------------------| 
E-0-0--0-0--0-0--0-0-0-0--0-0-0-0--0-0-0--0-0-0-0--0-0--0-0--0-0-0-0--0-0-0-0--0-0-0| 
 ................................................................................... 

                                                         x2   Chorus 
E-----------------------------------------------------------------------------------| 
B-----------------------------------------------------------|-----------------------| 
G----------------------------------------------------------*|-----------------------| 
D----------------------------------------------------------*|-----------------------| 
A-----------------------------------------------------------|---0-0-0-0-0-0-0-0-0-0-| 
E--0-0-0-0--0-0--0-0--0-0-0-0--0-0-0-0--0-0-0--0-0-0-0-\----------------------------| 
 .....................................................|        pm................... 

E-----------------------------------------------------------------------------------| 
B-----------------------------------------------------------------------------------| 
G-----------------------------------------------------------------------------------| 
D-----------------------------------------------------------------------------------| 
A-0-0-0-0-0-0-0-0-0-0-0-0-0-0-0-0-0-0-0-0-0-0-0-0-0-0-0-0-0-0-0-0-0-0-0-0-0-0-------| 
E-----------------------------------------------------------------------------\4-4-4| 
 ................................................................................... 

E-----------------------------------------------------------------------------------| 
B-----------------------------------------------------------------------------------| 
G-----------------------------------------------------------------------------------| 
D-----------------------------------------------------------------------------------| 
A-----------------------------------------------------------------------------------| 
E-4-4-4-4-4-4-4-4-4-4-4-4-4-\3-3-3-3-3-3-3-3-3-3-3-3-3-3-3-3/5-5-5-5-5-5-5-5-5-5-5-5| 
 ................................................................................... 

E-----------------------------------------------------------------------------------| 
B-----------------------------------------------------------------------------------| 
G-----------------------------------------------------------------------------------| 
D-----------------------------------------------------------------------------------| 
A-------------------------------------------------------------------------/0-0-0-0-0| 
E-5-5-5-5\0-0-0-0-0-0-0-0-0-0-0-0-0-0-0-0-0-0-0-0-0-0-0-0-0-0-0-0-0-0-0-0-----------| 
 ................................................................................... 

E-----------------------------------------------------------------------------------| 
B-----------------------------------------------------------------------------------| 
G-----------------------------------------------------------------------------------| 
D-----------------------------------------------------------------------------------| 
A-0-0-0-0-0-0-0-0-0-0-0-0-0-0-0-0-0-0-0-0-0-0-0-0-0-0-0-0-0-0-0-0-0-0-0-0-0-0-0-0-0-| 
E-----------------------------------------------------------------------------------| 
 ................................................................................... 

E-----------------------------------------------------------------------------------| 
B-----------------------------------------------------------------------------------| 
G-----------------------------------------------------------------------------------| 
D-----------------------------------------------------------------------------------| 
A-0-0----------------------------------/-5-5-5-5-5-5-5-5\3-3-3-3-3-3-3-3\2-2-2-2-2-2| 
E-----\4-4-4-4-4-4-4-4-4-4-4-4-4-4-4-4----------------------------------------------| 
 ................................................................................... 

                                                                               Verse 
E-----------------------------------------------------------------------------------| 
B--------------------------------------------------------|--------|----------|------| 
G--------------------------------------------------------|---2~---|--Riff-1--|*-----| 
D-----------------------------------0-3-2-3-0-3---3---3--|---2~---|----------|*-----| 
A-2-2\0-0-0-0-0-0-0-0---------0-2-3-------------3---2----|---0~---|----------|------| 
E----------------------\0-1-4---------------------------------------------------0-0-| 
 ......................................|                                       pm... 

  2 
E-----------------------------------------------------------------------------------| 
B-----------------------------------------------------------------------------------| 
G-----------------------------------------------------------------------------------| 
D-----------------------------------------------------------------------------------| 
A-----------------------------------------------------------------------------------| 
E-0-0--0-0-0-0--0-0-0--0-0-0-0--0-0--0-0--0-0-0-0--0-0-0-0--0-0-0--0-0-0-0--0-0--0-0| 
 ................................................................................... 
                                                                        ____________ 
                                                                       |1. 
E----------------------------------------------------------------------|------------| 
B----------------------------------------------------------------------|------------| 
G----------------------------------------------------------------------|------------| 
D----------------------------------------------------------------------|------------| 
A----------------------------------------------------------------------|------------| 
E--0-0-0-0--0-0-0-0--0-0-0--0-0-0-0--0-0--0-0--0-0-0-0--0-0-0-0--0-0-0-|-0-0-0-0--\-| 
 ................................................................................... 
 _______ ______________ 
        |2.            |               Interlude 
E-------|--------------||-----------------------------------------------------------| 
B-------|--------------||------------|----------------------------------------------| 
G--3~--*|--------------||---Chorus---|*---------------------------------------------| 
D--1~--*|--------------||------------|*---------------3-2~--0----------------3--7~--| 
A-------|--------------||------------|---2--2---3p2---3-2~--0---2--2---3p2---3--5~--| 
E-------|--0-0-0-0-\---||----------------0--0---1p0-------------0--0---1p0------5~--| 
          pm......|                     pm...|       pm    pm  pm....|      pm 
  
     x11                                                                 Guitar Solo 
E------------------------------------------------------------------------17p12------| 
B--------|-------------------------------------------------------------|-------13p12| 
G-------*|-----------------------------------------/-9-9-9-9-9-9-9-9---|------------| 
D-\-3~--*|----------------3-2~--0------------------/-9-9-9-9-9-9-9-9---|------------| 
A-\-3~---|--2--2----3p2---3-2~--0--2-2-2-2-2-2-2-2-/-7-7-7-7-7-7-7-7---|------------| 
E-\-1-------0--0----1p0------------0-0-0-0-0-0-0-0----------------------------------| 
           pm...|              pm...................................| 

E----12h17p12----------12p17h12-/17p12----------12h17p12----------------12h17p12----| 
Bh13----------13p12h13-----------------13p12h13----------13----------13----------13-| 
G----------------------------------------------------------14p12h14-----------------| 
D-----------------------------------------------------------------------------------| 
A-----------------------------------------------------------------------------------| 
E-----------------------------------------------------------------------------------| 

E-------------7h10p7------------------10h13p10--------------------13h16p13----------| 
B-----------9--------9-------------12----------12--------------15----------15-------| 
G-14-\-7h10------------10p7-/10h13----------------13p10-/13h16----------------16p13/| 
D-----------------------------------------------------------------------------------| 
A-----------------------------------------------------------------------------------| 
E-----------------------------------------------------------------------------------| 

E----------16h19p16----------/-20p17----17h20p17----17\12h17p12----12h17p12----12\8h| 
B-------18----------18---------------17----------17-------------13----------13------| 
G-16h19----------------19p16--------------------------------------------------------| 
D-----------------------------------------------------------------------------------| 
A-----------------------------------------------------------------------------------| 
E-----------------------------------------------------------------------------------| 

E12p8----8h12p8----8\5h8p5---5h8p5---5-\4h7p4-------4/7h10p7--------7/10h13p10------| 
B-----10--------10---------5-------5----------6---6----------9----9------------12---| 
G-----------------------------------------------7--------------10-----------------13| 
D-----------------------------------------------------------------------------------| 
A-----------------------------------------------------------------------------------| 
E-----------------------------------------------------------------------------------| 

E----10/13h16p13----------13h16-----------------------------------------------------| 
B-12-------------15----15-------\17~--13~-------17b(18)~--r-17~--15~--15~~-13~--12~-| 
G-------------------16---------------------14~--------------------------------------| 
D-----------------------------------------------------------------------------------| 
A-----------------------------------------------------------------------------------| 
E-----------------------------------------------------------------------------------| 

E------------------13-17-16-17-13-17-16-17-12-17-16-17-12-17-16-17----17-16-17----17| 
B-/15b(17)~~--r-\--------------------------------------------------15----------15---| 
G-----------------------------------------------------------------------------------| 
D-----------------------------------------------------------------------------------| 
A-----------------------------------------------------------------------------------| 
E-----------------------------------------------------------------------------------| 

E-16-17----17-16-17----17-16-17-----------------------------------------------------| 
B-------13----------13-----------\17----------17----------17----------17----------17| 
G------------------------------------16p14h16----16p14h16----16p14h16----16p14h16---| 
D-----------------------------------------------------------------------------------| 
A-----------------------------------------------------------------------------------| 
E-----------------------------------------------------------------------------------| 

E-------------------------------------------------------------------------------|| 
B----------17----------17----------17--------------------|------------|---------|| 
G-16p14h16----16p14h16----16p14h16----16p14h16-\14~~~----|---Chorus---|--2~-----|| end 
D-----------------------------------------------------\--|------------|--2~--\--|| 
A--------------------------------------------------------|------------|--0~--\--|| 
E----------------------------------------------------------------------------\--|| 

-------------------------------------------------------------------------------------- 

  Rhythm Guitar during Guitar Solo 
E-----------------------------------------------------------------------------------| 
B-----------------------------------------------------------------------------------| 
G-----------------------------------------------------------------------------------| 
D-----------------------------------------------------------------------------------| 
A--0-0-0-0-0-0-0-0-0-0-0-0-0-0-0-0-0-0-0-0-0-0-0-0-0-0-0-0-0-0-0-0-0-0-0-0-0-0-0-0-0| 
E-----------------------------------------------------------------------------------| 
 pm................................................................................. 

E-----------------------------------------------------------------------------------| 
B-----------------------------------------------------------------------------------| 
G-----------------------------------------------------------------------------------| 
D-----------------------------------------------------------------------------------| 
A-0-0-0-0-0-0-0---------------------------------------------------------------------| 
E---------------\4-4-4-4-4-4-4-4-4-4-4-4-4-4-4-4-\3-3-3-3-3-3-3-3-3-3-3-3-3-3-3-3-/5| 
 ................................................................................... 

E-----------------------------------------------------------------------------------| 
B-----------------------------------------------------------------------------------| 
G-----------------------------------------------------------------------------------| 
D-----------------------------------------------------------------------------------| 
A-----------------------------------------------------------------------------------| 
E-5-5-5-5-5-5-5-5-5-5-5-5-5-5-5-\0-0-0-0-0-0-0-0-0-0-0-0-0-0-0-0-0-0-0-0-0-0-0-0-0-0| 
 ................................................................................... 

E-----------------------------------------------------------------------------------| 
B-----------------------------------------------------------------------------------| 
G-----------------------------------------------------------------------------------| 
D-----------------------------------------------------------------------------------| 
A-------------/0-0-0-0-0-0-0-0-0-0-0-0-0-0-0-0-0-0-0-0-0-0-0-0-0-0-0-0-0-0-0-0-0-0-0| 
E-0-0-0-0-0-0-----------------------------------------------------------------------| 
 ................................................................................... 

E-----------------------------------------------------------------------------------| 
B-----------------------------------------------------------------------------------| 
G-----------------------------------------------------------------------------------| 
D-----------------------------------------------------------------------------------| 
A-0-0-0-0-0-0-0-0-0-0-0-0-0----------------------------------/-5-5-5-5-5-5-5-5-\3-3-| 
E---------------------------\4-4-4-4-4-4-4-4-4-4-4-4-4-4-4-4------------------------| 
 ................................................................................... 

E--------------------------------------------------------------------------------|| 
B--------------------------------------------------------------------------------|| 
G--------------------------------------------------------------------------------|| end 
D-----------------------------------------------------------0-3-2-3-0-3---3---3--|| 
A-3-3-3-3-3-3\2-2-2-2-2-2-2-2\0-0-0-0-0-0-0-0---------0-2-3-------------3---2----|| 
E---------------------------------------------\-0-1-4----------------------------|| 
 ..............................................................| 

-------------------------------------------------------------------------------------- 

======================= 
=TABLATURE EXPLANATION= 
======================= 

A.H. = Artificial Harmonic 

pm..| = Palm mute 

h = hammer on 

p = pull off 

/ = slide up 

\ = slide down 

~ = Vibrato 

b() = Bend 

x\ = Pick Slide 

-------- 
-------- 
---12--- = Tremolo pick 
----/--- 
----/--- 
----/--- 

---.--- 
--12--- = Staccato 
------- 
------- 
------- 

|     | 
|     | 
|*   *| = repeat from * to * 
|*   *|  
|     | 
	  

No existe una video leccione para esta canción

request
LosAcordes
Buscar
auto avanzar rasgueos aumentar disminuir cambiar color esconder acordes gráficos
losacordes exhibir acordes losacordes youTube video losacordes ocultar tabs losacordes ir hacia arriba losacordes