Misty Edwards

Início > Misty Edwa... > acordes

Fling Wide Tablatura

Misty Edwards

Dificultad:Ningún gradoNingún grado

marcnagel

tuner correct add songbook print version text version salvar en e-mail
acordesukuleletablaturabajobateríaarmónicaflautacavacopiano Guitar Pro
acordes

Fling Wide

Tono:  D Más
Fling Wide Key AA
Fling Wide Key A#A#
Fling Wide Key BB
Fling Wide Key CC(Disminuir uno tono)
Fling Wide Key C#C#(Disminuir uno semi-tono)
Fling Wide Key DD(tono original)
Fling Wide Key D#D#(Aumentar uno semi-tono)
Fling Wide Key EE(Aumentar uno tono)
Fling Wide Key FF
Fling Wide Key F#F#
Fling Wide Key GG
Fling Wide Key G#G#
	  


Intro: 

e|---------------------------------7--| 
B|-7-7-7-7h8-10-8-8---7-7-7-7h8-10----| 
G|------------------7-----------------| 
D|------------------------------------| 
A|------------------------------------| 
E|------------------------------------| 

e|-7h9-10-9-7------7------7h9-10-9-7------7--7-9-7-9-10-9-10-12-10-12--| 
B|------------7-10---7---------------7-10--10--------------------------| 
G|---------------------------------------------------------------------| 
D|---------------------------------------------------------------------| 
A|---------------------------------------------------------------------| 
E|---------------------------------------------------------------------| 


verse 1: 


Awake, awake, oh north wind 
Awake, awake, oh south wind; blow over me 
Come, oh winds of testing 
Come, winds of refreshing; blow over me (x2) 

e|---------------------------------7-----------------------| 
B|-7-7-7-7h8-10-8-8---7-7-7-7h8-10----5h7-8-7-5-----5------| 
G|------------------7---------------------------4-7---4----| 
D|---------------------------------------------------------| 
A|---------------------------------------------------------| 
E|---------------------------------------------------------| 


e|---------------------------------------------------------| 
B|-5h7-8-7-5-----5--5-7-5-7-8-7-8-10-8-10------------------| 
G|-----------4-7--7----------------------------------------| 
D|---------------------------------------------------------| 
A|---------------------------------------------------------| 
E|---------------------------------------------------------| 


Pre-Chorus 

Let the winds blow,  
Let the winds blow (x7) 


e|---------------------------------7-----------------------| 
B|-7-7-7-7h8-10-8-8---7-7-7-7h8-10----5h7-8-7-5-----5------| 
G|------------------7---------------------------4-7---4----| 
D|---------------------------------------------------------| 
A|---------------------------------------------------------| 
E|---------------------------------------------------------| 


e|---------------------------------------------------------| 
B|-5h7-8-7-5-----5--5-7-5-7-8-7-8-10-8-10------------------| 
G|-----------4-7--7----------------------------------------| 
D|---------------------------------------------------------| 
A|---------------------------------------------------------| 
E|---------------------------------------------------------| 



Chorus: 
 D              G/D              D           G/D 
 Fling wide the door to my soul, open up the door to my heart. 
 Bm             G              Bm             G 
 Have your way, have your way, have your way, yeah. 


verse 2: 

I won’t be afraid; I will face the wind 
I won’t be afraid; I’ll embrace the flame (x2) 


e|---------------------------------7--| 
B|-7-7-7-7h8-10-8-8---7-7-7-7h8-10----| 
G|------------------7-----------------| 
D|------------------------------------| 
A|------------------------------------| 
E|------------------------------------| 

e|-7h9-10-9-7------7------7h9-10-9-7------7--7-9-7-9-10-9-10-12-10-12--| 
B|------------7-10---7---------------7-10--10--------------------------| 
G|---------------------------------------------------------------------| 
D|---------------------------------------------------------------------| 
A|---------------------------------------------------------------------| 
E|---------------------------------------------------------------------| 


Pre-Chorus 

Let the winds blow,  
Let the winds blow (x7) 


e|---------------------------------7--| 
B|-7-7-7-7h8-10-8-8---7-7-7-7h8-10----| 
G|------------------7-----------------| 
D|------------------------------------| 
A|------------------------------------| 
E|------------------------------------| 

e|-7h9-10-9-7------7------7h9-10-9-7------7--7-9-7-9-10-9-10-12-10-12--| 
B|------------7-10---7---------------7-10--10--------------------------| 
G|---------------------------------------------------------------------| 
D|---------------------------------------------------------------------| 
A|---------------------------------------------------------------------| 
E|---------------------------------------------------------------------| 


Chorus: 
 D              G/D              D           G/D 
 Fling wide the door to my soul, open up the door to my heart. 
 Bm             G              Bm             G 
 Have your way, have your way, have your way, yeah. 


Bridge: 
D                         G/D 
Take me through the fire, take me through the rain. 
D                            G/D 
Take me through the testing, I’ll do anything.  
Bm               G                            Bm             G 
Test me, try me, prove me, refine me like the gold, like the gold. 



************************************ 

| /   slide up 
| \   slide down 
| h   hammer-on 
| p   pull-off 
| ~   vibrato 
| +   harmonic 
| x   Mute note 
| b   Bend 
| pb  Pre-bend 
| br  Bend release 
| pbr Pre-bend release 
| brb Bend release bend 

************************************ 
	  

No existe una video leccione para esta canción

request
Aumentar uno tonoAumentar uno tono
Aumentar uno semi-tonoAumentar uno semi-tono
Disminuir uno semi-tonoDisminuir uno semi-tono
Disminuir uno tonoDisminuir uno semi-tono
LosAcordes
Buscar
auto avanzar rasgueos aumentar disminuir cambiar color esconder acordes gráficos
losacordes exhibir acordes losacordes youTube video losacordes ocultar tabs losacordes ir hacia arriba losacordes