Misc Soundtrack

Início > Misc Sound... > acordes

Stranger Things - Main Theme Tablatura

Misc Soundtrack

Dificultad:Ningún gradoNingún grado

hugo_rodrigues

tuner correct add songbook print version text version salvar en e-mail
acordesukuleletablaturabajobateríaarmónicaflautacavacopiano Guitar Pro
acordes

Stranger Things - Main Theme

	  
Intro 

e |---------------------------------------------------------0------| 
B |---------------------------------------------------------0------| 
G |---------------------------------------------------------0------| 
D |---------------------------------------------------------2------| 
A |---------------------------------------------------------3------| 
C |---^0-0-0-0-^0-0-0-0-^0-0-0-0-^0-0-0-0-^0-0-0-0-^0-0-0-0-0------| 
   
    Every note on the C-String except for the chord is Palm muted 

 Verse 

e |-------------------------------------------------------------------------------------------------------| 
B |-------0-1p0-------0-1p0-------0-1p0-------0---0---0-1p0-------0-1p0-------0-1p0-------0---0---0-1p0---| 
G |------0-----0-----0-----0-----0-----0-----0---0---0-----0-----0-----0-----0-----0-----0---0---0-----0--| 
D |-----2-------0---2-------0---2-------0---2---2---2-------0---2-------0---2-------0---2---2---2-------0-| 
A |-------------------------------------------------------------------------------------------------------| 
C |----0----0------0----0------0----0------0---2---4----4------4----4------4----4------4---2---0----0-----| 


e |---------------------------------------------------------------------------------| 
B |-------0-1p0-------0-1p0-------0---0---0-1p0-------0-1p0-------0-1p0-------0---0-| 
G |------0-----0-----0-----0-----0---0---0-----0-----0-----0-----0-----0-----0---0--| 
D |-----2-------0---2-------0---2---2---2-------0---2-------0---2-------0---2---2---| 
A |---------------------------------------------------------------------------------| 
C |----0----0------0----0------0---2---4----4------4----4------4----4------4---2----| 

    x3 

  Outro 

e |---------------------------| 
B |-------0-------------------| 
G |------0--------------------| 
D |-----2---------------------| 
A |---------------------------| 
C |----0----------------------| 

    Fade out 


************************************ 

| ^   Accented note 
| p   Pull-off 

************************************ 
	  

No existe una video leccione para esta canción

request
LosAcordes
Buscar
auto avanzar rasgueos aumentar disminuir cambiar color esconder acordes gráficos
losacordes exhibir acordes losacordes youTube video losacordes ocultar tabs losacordes ir hacia arriba losacordes