Michelle Branch

Início > Michelle B... > acordes

Sweet Misery Tablatura

Michelle Branch

Dificultad:Ningún gradoNingún grado

tuner correct add songbook print version text version salvar en e-mail
acordesukuleletablaturabajobateríaarmónicaflautacavacopiano Guitar Pro
acordes

Sweet Misery

	   
        C  G  F  
e:------0--3--1---------
B:------1--0--1---------
G:------0--0--2---------
D:------2--0--3---------
A:------3--2------------
E:---------3------------

*sem guitarra*
I was lost
And you were found     
You seemed to stand on solid ground


  C
e:----------------
B:----------1-----
G:-------0-----0--
D:----------------
A:----3-----------
E:----------------
I was weak

G
e:---------------
B:---------0-----
G:------0-----0--
D:---------------
A:---------------
E:---3-----------
And you were strong

F                            G
e:----------------------|-----------------
B:----------1-----------|------------0----
G:-------2-----2--------|---------0-----0-
D:----3-----------------|-----------------
A:----------------------|-----------------
E:----------------------|------3----------
And me and my guitar        we stummed along

(ou repita C - G - F - G para todos os versos)


REFRÃO:

    C                 G
Oh, sweet misery you cause me
  F                      G
That's what you called me
C                  G
Sweet misery you cause me

C G F G  C G F G

(dedilhe com mais ritmo)

C
I was blind
G
But oh how you could see
F                            G
You saw the beauty in everything... 

Everything and me

C
I would cry
G
And you would smile
F              G  
Stay with me a little while

(REFRÃO)

C         G          F
And in my heart I see
C           G          F
What you're doing to me
C         G          F
And in my heart I see
C         G                F
Just how you wanted it to be
           C G F G C G F G
Sweet misery               ) 

C   G  F   G  C   G    F    G
Ooohhh Whoa...  ohohohoh... 


Repita isso até acabar a música...
  C
e:----------------
B:----------3-----
G:-------0-----0--
D:----------------
A:----------------
E:----3-----------
	  

No existe una video leccione para esta canción

request
Aumentar uno tonoAumentar uno tono
Aumentar uno semi-tonoAumentar uno semi-tono
Disminuir uno semi-tonoDisminuir uno semi-tono
Disminuir uno tonoDisminuir uno semi-tono
LosAcordes
Buscar
auto avanzar rasgueos aumentar disminuir cambiar color esconder acordes gráficos
losacordes exhibir acordes losacordes youTube video losacordes ocultar tabs losacordes ir hacia arriba losacordes