Michael Angelo

Início > Michael An... > acordes

Prog Tablatura

Michael Angelo

Dificultad:Ningún gradoNingún grado

Vallim guitar

tuner correct add songbook print version text version salvar en e-mail
acordesukuleletablaturabajobateríaarmónicaflautacavacopiano Guitar Pro
acordes

Prog

	   
  H    Q  E E   H    Q  Q    +Q.   S  S H       S  S E E E 
|-------------|------------|-----------------|-------------| 
|-3-------5-6-|-8-------6--|-(6)---6--8------|-----8-------| 
|-------------|------------|---------10-9----|-10-10-9-7-5-| 
|-------------|------------|-----------------|-------------| 
|-------------|------------|-----------------|-------------| 
|-------------|------------|-----------------|-------------| 
 
 
 4/4 
  H    +E  E E E   +H.      Q    +E  E +E  E H 
|----------------|-------------|-----6-(6)---9----| 
|-3----(3)-5-6-8-|-(8)------6--|-(6)--------------| 
|----------------|-------------|------------------| 
|----------------|-------------|------------------| 
|----------------|-------------|------------------| 
|----------------|-------------|------------------| 
 
 
 2/4            4/4 
  +E   E  E  E    E  E  E  E E E E E 
|-(9)-10-12-13-|-12-10---------------| 
|--------------|-------10--------5-6-| 
|--------------|----------10-9-7-----| 
|--------------|---------------------| 
|--------------|---------------------| 
|--------------|---------------------| 
 
 
                                    2/4       4/4 
  H    Q  Q    +E  E S S E E E E E   E E E E   E E Q  H 
|------------|---------------------|-5-3-1-0-|-1-0---------| 
|-8-------6--|-(6)-6-5-6---------5-|---------|-----3-------| 
|------------|---------9-7-6---6---|---------|-------------| 
|------------|---------------7-----|---------|-------------| 
|------------|---------------------|---------|--------5----| 
|------------|---------------------|---------|-------------| 
 
 
                                                             2/4 
  S S S S E S S S S E  S S  S S    E  S S  S S  E  E  E  Q     +Q.    S  S 
|-7---------8-------------------|---------------------------|--------------| 
|-----8---8-----8---8-10--------|----12-----------10--------|-----------10-| 
|--------------------------10---|-10------10---10----10-----|-----------10-| 
|-------------------------------|-----------------------11--|-(11)---12----| 
|-------------------------------|---------------------------|--------------| 
|-------------------------------|---------------------------|--------------| 
 
 
 4/4 
   S  S  S  S Q  H      S S  S  S  +S  S  S S  S  E S  S  S  S S 
|-13-21-------1-------|-4-7-10-13-(13)------9-12-15------------9-| 
|-15-22-22----3-------|------------------11-----------------11---| 
|-------22------------|----------------------------------12------| 
|----------24---------|-------------------------------14---------| 
|----------24---------|------------------------------------------| 
|---------------------|------------------------------------------| 
 
 
  +E  S S S  E S  S  S  S S  S  S  S  S 
|-(9)---6-9-12------------8-12----------| 
|-----8----------------10------13-------| 
|-----------------------9---------14----| 
|-------------------10------------14----| 
|----------------12------------------15-| 
|---------------------------------------| 
 
 
 2/4     4/4 
   H       H     +E   E  E  E    +H.       Q 
|-------|---------------------|---------------| 
|-------|---------------------|---------------| 
|-------|---------------------|---------------| 
|-------|---------------------|---------------| 
|-------|-17----(17)-19-20-22-|-(22)------20--| 
|-17----|---------------------|---------------| 
 
 
                        2/4             4/4 
   +E   E  +E  E  H       +E   E  E  E    E  E  E  E  E  E  E  E 
|----------------------|---------------|-------------------------| 
|----------------------|---------17-18-|-17-15-------------------| 
|----------------18----|-(18)-19-------|-------14----------------| 
|------20-(20)---------|---------------|----------15-14-12-14-15-| 
|-(20)-----------------|---------------|-------------------------| 
|----------------------|---------------|-------------------------| 
 
 
   H    Q   Q     +E   E  S  S  E  E  E  E  E 
|--------------|------------------------------| 
|--------------|------------------------------| 
|--------------|------------------------------| 
|-17-------15--|-(15)-15-14-15-------------14-| 
|--------------|------------19-17-16----16----| 
|--------------|---------------------17-------| 
 
 
 2/4          4/4 
   E  E  E E    E E Q  H 
|------------|--------------| 
|------------|--------------| 
|-14-12-10-9-|-10-9-7-------| 
|------------|--------------| 
|------------|---------5----| 
|------------|--------------| 
 
 
  S S S S E S S S S E  S S  S S    E  S S  S S  E  E  E  Q 
|-7---------8-------------------|---------------------------| 
|-----8---8-----8---8-10--------|----12-----------10--------| 
|--------------------------10---|-10------10---10----10-----| 
|-------------------------------|-----------------------11--| 
|-------------------------------|---------------------------| 
|-------------------------------|---------------------------| 
 
 
 2/4     3/4                     4/4 
   H       E  S  S E  E  S  S E   E S S E E E E E E   Q  E E S S E E E 
|-------|-----------------------|-------------------|-------------------| 
|-------|-----------------------|-------------------|-------------------| 
|-------|-----------------------|-------------------|-------------------| 
|-11----|-----------------------|---------------4-4-|-4-----------------| 
|-------|----------0------------|-4-4-4---4-4-4-4-4-|-4--4-4-4-4-4-4-4--| 
|-------|-12-12-12---10-10-10-3-|-------2-2-2-2-2-2-|-2--2-2-2-2-2-2-2--| 
 
 
 6/4                                                  4/4 
  S S S S S S S S S  S  S  S S S S S S S S S S S S S   H    Q  E E 
|-------3-1-0-9-8-6-13-12-10-9-8-6-------------3-1-0-|-7----7----9-| 
|-3-1-0----------------------------8-6-5-3-1-0-------|-------------| 
|----------------------------------------------------|-------------| 
|----------------------------------------------------|-------------| 
|----------------------------------------------------|-------------| 
|----------------------------------------------------|-------------| 
 
 
 3/4         4/4              2/4             4/4               3/4 
  +H     Q     H     Q  E  E    +E   E  E  E    H     Q   E  E    +H. 
|-(9)----9--|-10----12----13-|-(13)-13-14-16-|-17----16--14-13-|-(13)----| 
|-----------|----------------|---------------|-----------------|---------| 
|-----------|----------------|---------------|-----------------|---------| 
|-----------|----------------|---------------|-----------------|---------| 
|-----------|----------------|---------------|-----------------|---------| 
|-----------|----------------|---------------|-----------------|---------| 
 
 
 4/4                                               2/4 
   S  S  S  S  S  S  S  S  S  S  S  S  S  S  S  S    S  S  S  S  S  S  S  S 
|-------17----------------------------------------|-------------------------| 
|-14-15----17-15-14-15-17-19-17-15-14-15-17-19-20-|-22-20-19-20-22-23-22-20-| 
|-------------------------------------------------|-------------------------| 
|-------------------------------------------------|-------------------------| 
|-------------------------------------------------|-------------------------| 
|-------------------------------------------------|-------------------------| 
 
 
 4/4                                     3/4 
   S  S  S  S  S  S S S S S S S S S S S   S S S S S S S S S S S S 
|----------13-12-10-8-6-5-8-6-5-3-1-0-1-|-3-5-6-8-6-5-3-1-0--------| 
|-18-17-15------------------------------|-------------------2-1----| 
|---------------------------------------|-----------------------3--| 
|---------------------------------------|--------------------------| 
|---------------------------------------|--------------------------| 
|---------------------------------------|--------------------------| 
 
 
 4/4                                    2/4 
  S S S S S S S S S  S  S S  S S  S  S    S  S  S  S  S  S  S  S 
|--------------------------------------|-------------------------| 
|-2-1--------------------------8-10-11-|-13-15-17-18-------------| 
|-----3-1-----------------9-10---------|-------------17-15-14-15-| 
|---------4-2-4-6-8-10-11--------------|-------------------------| 
|--------------------------------------|-------------------------| 
|--------------------------------------|-------------------------| 
 
 
 4/4 
   S  S  S  S  S  S  S  S  S  S  S  S  S  S  S  S 
|-------------------------------------13-12-10-10-| 
|-13-15-17-18-20-22-23-22-20-19-17-15-------------| 
|-------------------------------------------------| 
|-------------------------------------------------| 
|-------------------------------------------------| 
|-------------------------------------------------| 
 
 
 3/4                                   4/4 
   S  S  S  S  S  S  S  S  S  S  S  S    H     Q   E  E 
|-13-15-16-18-20-21-------------20-21-|-21----19--17-16-| 
|----------------------20-21-23-------|-----------------| 
|-------------------22----------------|-----------------| 
|-------------------------------------|-----------------| 
|-------------------------------------|-----------------| 
|-------------------------------------|-----------------| 
 
 
 2/4       4/4 
   +H       E E E E E E E E   +Q   Q  S S S  S  S  S  S  S 
|-(16)----|-----------------|-----------1-5-10-13-17-21----| 
|---------|-----------------|---------3--------------------| 
|---------|-----------------|---------------------------22-| 
|---------|-----------------|------------------------------| 
|---------|---------------2-|-(2)--2-----------------------| 
|---------|-4-2-4-6-4-2-0-0-|-(0)--0-----------------------| 
 
 
 6/4 
   S  S  S  S  S  S  S  S S E. +H. 
|-------------21----------1-------------| 
|----------22-22------------3--(3)------| 
|-------22-------22---------------------| 
|-24-24-------------24------------------| 
|----24----------------24---------------| 
|---------------------------------------| 
 
 
 4/4 
  Q  E E Q  E E   +E  E +E  E +E  E +E  E 
|-------------2-|-(2)-2-(2)-------2-(2)----| 
|-------------0-|-(0)-0-(0)-------3-(3)----| 
|-4------4--4---|-----------4-(4)-4-(4)-4--| 
|-4----4-4--4-4-|-(4)-4-(4)-------4-(4)-4--| 
|-2----2-2--2-2-|-(2)-2-(2)-------2-(2)-2--| 
|---------------|--------------------------| 
 
 
  E E E E +E  E +E  E   +E  E H    Q    E E E E +E  E E E   +E   E  Q   H 
|-------0-(0)---------|-------5-------|---7-------------7-|-(7)--------------| 
|-5-5-1-1-(1)---------|---------------|-5-----8-(8)-----5-|-(5)-12-----12----| 
|-2-2---2-(2)-2-(2)-2-|-(2)-2-2-------|-4---9-9-(9)-9---9-|-(9)----12--------| 
|-2-2---2-(2)-------2-|-(2)-2-2-------|-2---9-------9---9-|-(9)--------14----| 
|-0-0---0-(0)-------0-|-(0)-0-0-------|-----7---------7---|--------14--14----| 
|-------------5-(5)---|---------------|-------------------|-----12-----12----| 
 
 
   E  E  +E   E  +E   E  +E   E    +E   E  +E   E  +E   E  +E   E 
|-------------------------------|---------------------------------| 
|--8--9--(9)-10-(10)-11-(11)-12-|-(12)-13-(13)-14-(14)-15-(15)-16-| 
|--0----------------------------|-----------------------0--(0)----| 
|-10-11-(11)-12-(12)-13-(13)-14-|-(14)-15-(15)-16-(16)-17-(17)-18-| 
|----11-(11)-12-(12)-13-(13)-14-|-(14)-15-(15)-16-(16)-17-(17)-18-| 
|--8--9--(9)-10-(10)-11-(11)-12-|-(12)-13-(13)-14-(14)---------16-| 
 
 
  Q  E E Q  E E   +E  E +E  E +E  E +E  E 
|-------------2-|-(2)-2-(2)-------2-(2)---| 
|-------------0-|-(0)-0-(0)-------3-(3)---| 
|-4------4--4---|-----------4-(4)-4-(4)-4-| 
|-4----4-4--4-4-|-(4)-4-(4)-------4-(4)-4-| 
|-2----2-2--2-2-|-(2)-2-(2)-------2-(2)-2-| 
|---------------|-------------------------| 
 
 
  E E E E +E  E +E  E   +E  E H    Q    E E E E +E  E E E   +E   E  Q   H 
|-------0-(0)---------|-------5-------|---7-------------7-|-(7)--------------| 
|-5-5-1-1-(1)---------|---------------|-5-----8-(8)-----5-|-(5)-12-----12----| 
|-2-2---2-(2)-2-(2)-2-|-(2)-2-2-------|-4---9-9-(9)-9---9-|-(9)----12--------| 
|-2-2---2-(2)-------2-|-(2)-2-2-------|-2---9-------9---9-|-(9)--------14----| 
|-0-0---0-(0)-------0-|-(0)-0-0-------|-----7---------7---|--------14--14----| 
|-------------5-(5)---|---------------|-------------------|-----12-----12----| 
 
 
   E  E  +E   E  +E   E  +E   E    +E   E  +E   E  +E   E  +E   E 
|-------------------------------|---------------------------------| 
|--8--9--(9)-10-(10)-11-(11)-12-|-(12)-13-(13)-14-(14)-15-(15)-16-| 
|--0----------------------------|-----------------------0--(0)----| 
|-10-11-(11)-12-(12)-13-(13)-14-|-(14)-15-(15)-16-(16)-17-(17)-18-| 
|----11-(11)-12-(12)-13-(13)-14-|-(14)-15-(15)-16-(16)-17-(17)-18-| 
|--8--9--(9)-10-(10)-11-(11)-12-|-(12)-13-(13)-14-(14)---------16-| 
 
 
  E E +S  S E Q  E E   +S  S E Q  Q.   E 
|---2-(2)-----2----2-|-(2)-----2--3------| 
|---3-(3)-----3----3-|-(3)-----0--4------| 
|-2-4-(4)---2-4--2-4-|-(4)---2----5------| 
|-2-4-(4)---2-4--2-4-|-(4)---2-4--5------| 
|-0-2-(2)---0-2--0-2-|-(2)---0-2--3------| 
|--------------------|-------------------| 
 
 
  E E +S  S E Q  E E   +S  S E Q  Q.   E 
|---2-(2)-----2----2-|-(2)-----2--0------| 
|---3-(3)-----3----3-|-(3)-----0--4------| 
|-2-4-(4)---2-4--2-4-|-(4)---2----2------| 
|-2-4-(4)---2-4--2-4-|-(4)---2-4--2------| 
|-0-2-(2)---0-2--0-2-|-(2)---0-2--0------| 
|--------------------|-------------------| 
 
 
  E E +S  S E Q  E E   +S  S E Q  Q.   E 
|---2-(2)-----2----2-|-(2)-----2--3------| 
|---3-(3)-----3----3-|-(3)-----0--4------| 
|-2-4-(4)---2-4--2-4-|-(4)---2----5------| 
|-2-4-(4)---2-4--2-4-|-(4)---2-4--5------| 
|-0-2-(2)---0-2--0-2-|-(2)---0-2--3------| 
|--------------------|-------------------| 
 
 
  E E +S  S E Q  E E   +H     +Q   E S S   H    H      +H.      Q 
|---2-(2)-----2--2-0-|-(0)----(0)--------|------9----|-(9)------7--| 
|---3-(3)-----3--0-1-|-(1)----(1)----3-5-|-7---------|-------------| 
|-2-4-(4)---2-4----2-|-(2)----(2)--------|-----------|-------------| 
|-2-4-(4)---2-4--4-2-|-(2)----(2)--------|-----------|-------------| 
|-0-2-(2)---0-2--2-0-|-(0)----(0)--------|-----------|-------------| 
|--------------------|-------------------|-----------|-------------| 
 
 
  +H     +E  E E E   +E  S S E S S E E E E   Q  E S S E S S E S S 
|-(7)----(7)-5-3-2-|-(2)-------------------|-----------------------| 
|------------------|-----5-3-2-2-----------|-----------------------| 
|------------------|-------------4-2-4-2-0-|------2-1--------------| 
|------------------|-----------------------|-4--------4-5-4-2-4-2--| 
|------------------|-----------------------|-----------------------| 
|------------------|-----------------------|-----------------------| 
 
 
  E S S E S S E S S E S S   E S S E E E E S S E   E E E E +Q.   S S 
|-------------------------|---------------------|-------------------| 
|-------------------------|---------------------|-------------------| 
|-------------------------|---------------------|-------------------| 
|-0-0---------------------|-----------------0---|-------------------| 
|-----4-2-4-2-0-2-0---0---|---------0---0-4-4-2-|---0-5-4-(4)-------| 
|-------------------3---3-|-2-0-2-3---3---------|-3-------------1-3-| 
 
 
  S S S S S S S S S S S S S S S S   S  S S S S S S S S S S  S S S  S  S 
|---------------------------------|-------------------------------------| 
|---------------------------------|-------------------------------------| 
|---------------------------------|-------------------------------------| 
|---------------------------------|-------------------------------------| 
|-0-1-3-5-3-1-0---------0-1-3-5-7-|-8-10-8-7-5-3-1-3-5-7-8-10-----------| 
|---------------3-1-1-3-----------|---------------------------6-8-10-12-| 
 
 
   S  S S S S S  S  S  S  S  S  S  S  S  S S 
|--------------------------------------------| 
|--------------------------------------------| 
|--------------------------------------------| 
|--------------------------------------------| 
|-------3-5-7-9-10-12-14-15-17-15-14-12-10-9-| 
|-13-15--------------------------------------| 
 
 
   S  S  S  S  S  S  S  S  S  S  S S S S S S 
|--------------------------------------------| 
|--------------------------------------2-3-5-| 
|----------------------------------2-4-------| 
|--------------------------------------------| 
|-10-12-14-15-17-----------------------------| 
|----------------15-17-19-20-22-24-----------| 
 
 
  H    +E  E E E   +E  S S E E E E E E   E S  S E E E  E  E  E    W 
|--------------4-|-(4)-----------------|-----------------------|-------| 
|-7----(7)-5-3---|-----3-2---2---2-----|-----------------------|-------| 
|----------------|---------4---2---2-4-|-----------------------|-------| 
|----------------|---------------------|-6-6--7----------------|-------| 
|----------------|---------------------|-----11-9-7-9-11-12-12-|-------| 
|----------------|---------------------|-----------------------|-14----| 
 
 
  S S S S  S  S  S  S  S  S  S  S  S S S S 
|------------------------------------------| 
|------------------------------------------| 
|------------------------------------------| 
|------------------------------12-10-9-7-5-| 
|-3-5-7-8-10-12-14-15-17-15-14-------------| 
|------------------------------------------| 
 
 
  S S S S S  S  S  S  S  S  S  S  S  S S S 
|------------------------------------------| 
|------------------------------------------| 
|--------------------------------12-10-9-7-| 
|-3-3-5-7-9-10-12-14-15-17-15-14-----------| 
|------------------------------------------| 
|------------------------------------------| 
 
 
  S S S S S S S S S  S  S  S S S S S   S S S S S S S S  S  S  S  S  S  S  S  S 
|------------------------------7-5-3-|-3-1-0-----------------------------------| 
|---------3-5-6-8-8-10-12-10-8-------|-------2-3-5-7-8-10-12-14-15-17-15-14-12-| 
|-5-4-4-5----------------------------|-----------------------------------------| 
|------------------------------------|-----------------------------------------| 
|------------------------------------|-----------------------------------------| 
|------------------------------------|-----------------------------------------| 
 
 
   S  S  S  S  S  S  S  S  S  S  S  S  S  S  S  S 
|-------------------------------------------------| 
|-14-15-17-15-14-12-14-15-17-15-14-12-14-15-17-19-| 
|-------------------------------------------------| 
|-------------------------------------------------| 
|-------------------------------------------------| 
|-------------------------------------------------| 
 
 
   S  S  S  S  S  S  S  S S S S  S  S  S  S  S 
|-------------15-14-12-10-9-7-9-10-12-14-15-17-| 
|-20-20-19-17----------------------------------| 
|----------------------------------------------| 
|----------------------------------------------| 
|----------------------------------------------| 
|----------------------------------------------| 
 
 
   S  S  S  S  S  S  S  S  S  S  S  S  S  S S  S 
|----------------------------17-15-14-12-10-9-12-| 
|-------17-19-20-22-22-20-19---------------------| 
|-18-19------------------------------------------| 
|------------------------------------------------| 
|------------------------------------------------| 
|------------------------------------------------| 
 
 
                             Q=182 
   S  S  S  S  H    E S  S    +E   E  Q  Q   E  E 
|-17-19-20----22-----------|----------------------| 
|--------------------------|----------------------| 
|----------21--------------|----------------------| 
|-----------------------21-|-(21)----21-----------| 
|--------------------------|------21-24-----21-22-| 
|--------------------------|----------------------| 
 
 
                       2/4 
   +Q.    E  +Q.    E    +E   S  S  E  E 
|---------------------|------------------| 
|---------------------|------------------| 
|---------------------|------------------| 
|--------23-(23)---23-|-(23)-24-23-21-19-| 
|-(22)----------------|------------------| 
|---------------------|------------------| 
 
 
 4/4                   6/4 
   H     E  E  +E   E    +E   E  E  Q   E  E  E  E  E  E  E 
|---------------------|---------------------------------------| 
|---------------------|---------------------------------------| 
|---------------------|---------------------------------------| 
|-21----21-23-(23)-24-|-(24)-23-21-19--21----19----19---------| 
|---------------------|-------------------21----19----17-16---| 
|---------------------|---------------------------------------| 
 
 
 4/4 
   S  S  E  +Q    +E   E  E  E    +Q.    E  +Q.    E 
|------------------------------|---------------------| 
|------------------------------|---------------------| 
|------------------------------|---------------------| 
|------------------------------|---------------------| 
|-16-17------------------------|--------17-(17)---16-| 
|----21-19-(19)--(19)-17-14-15-|-(15)----------------| 
 
 
 2/4                4/4 
   +E   S  S  E  E    H     S  S  S  S  S  S  S  S 
|------------------|-------------------15-19-22-----| 
|------------------|----------------17----------24--| 
|------------------|-------------16-----------------| 
|------------------|----------17--------------------| 
|-(16)-16-17-------|-------19-----------------------| 
|---------21-19-17-|-19-----------------------------| 
 
 
   S  S  S  S  S  S  S  S  S  S  S  S  S  S  S  S 
|----------------19-22----------------------------| 
|-------------20-------24-------------------------| 
|-24-21----21-------------24-21-------------------| 
|-------21----------------------21-------------19-| 
|----------------------------------22-------20----| 
|-------------------------------------24-22-------| 
 
 
   S  S  S  S  S  S  S  S  S  S  S  S  S  S  S  S 
|-------17-20----------------------20-------------| 
|----18-------22----------------22----22----------| 
|-19-------------22----------22----------22-------| 
|-------------------24----24----------------24----| 
|----------------------24----------------------24-| 
|-------------------------------------------------| 
 
 
                               Q=172 
                                                 2/4      5/4 
  S S S S S  S S S S E. +Q     E E E E +E  E Q    +H       E E E E +E  E H 
|-1---1-3-7-10-----5-8--(8)--|-------7-(7)------|--------|-2-----7-(7)--------| 
|---3------------6-----------|-7-5---0-(0)------|--------|---5---0-(0)--------| 
|--------------8-------------|-----6---------2--|-(2)----|-----6--------------| 
|----------------------------|-------------9-2--|-(2)----|-------------7-9----| 
|----------------------------|---------------0--|-(0)----|--------------------| 
|----------------------------|------------------|--------|--------------------| 
 
 
 4/4                2/4      4/4 
  E E E E +E  E Q    +H       E E E E +E  E E E   W          H    H 
|-------7-(7)------|--------|-------7-(7)-------|----------|-----------| 
|-7-5---0-(0)------|--------|-7-5---0-(0)-------|----------|------5----| 
|-----6------------|--------|-----6-------------|----------|-----------| 
|-------------9----|--------|-------------9-7-9-|----------|-----------| 
|---------------9--|-(9)----|-------------------|-7--------|-----------| 
|------------------|--------|-------------------|----------|-----------| 
 
 
              Q=168 
 3/4         4/4 
  +H     Q    Q  E E Q  E E   +E  E +E  E +E  E +E  E   E E E E +E  E +E  E 
|-----------|---------------|-----------------2-(2)---|-------0-(0)---------| 
|-(5)-------|-------------7-|-(7)-7-(7)-------3-(3)---|-5-5-1-1-(1)---------| 
|-----------|-4------4--4-4-|-(4)-4-(4)-4-(4)-4-(4)-4-|-2-2---2-(2)-2-(2)-2-| 
|-----------|-4----4-4--4-4-|-(4)-4-(4)-------4-(4)-4-|-2-2---2-(2)-------2-| 
|-----------|---------------|-----------------2-(2)-2-|-0-0---0-(0)-------0-| 
|-----------|-7----7-7--7-7-|-(7)-7-(7)---------------|-------------5-(5)---| 
 
 
  +E  E H    Q    E E E E +E  E E E 
|-------5-------|---7-------------7-| 
|---------------|-5-----8-(8)-----5-| 
|-(2)-2-2-------|-4---9-9-(9)-9---9-| 
|-(2)-2-2-------|-2---9-------9---9-| 
|-(0)-0-0-------|-----7---------7---| 
|---------------|-------------------| 
 
 
  +E   E  Q   H       E  E  +E   E  +E   E  +E   E 
|-(7)--------------|-------------------------------| 
|-(5)-12-----12----|--8--9--(9)-10-(10)-11-(11)-12-| 
|-(9)----12--------|--0----------------------------| 
|-(9)--------14----|-10-11-(11)-12-(12)-13-(13)-14-| 
|--------14--14----|----11-(11)-12-(12)-13-(13)-14-| 
|-----12-----12----|--8--9--(9)-10-(10)-11-(11)-12-| 
 
 
   +E   E  +E   E  +E   E  +E   E   E E E E Q  E E 
|---------------------------------|---2-2---2----2-| 
|-(12)-13-(13)-14-(14)-15-(15)-16-|---3-0---3----3-| 
|-----------------------0--(0)----|-2-4---2-4--2-4-| 
|-(14)-15-(15)-16-(16)-17-(17)-18-|-2-4-4-2-4--2-4-| 
|-(14)-15-(15)-16-(16)-17-(17)-18-|-0-2-2-0-2--0-2-| 
|-(12)-13-(13)-14-(14)---------16-|----------------| 
 
 
  +S  S E Q  Q.   E   E E E E Q  E E 
|-(2)-----2--3------|---2-2---2----2--| 
|-(3)-----0--4------|---3-0---3----3--| 
|-(4)---2----5------|-2-4---2-4--2-4--| 
|-(4)---2-4--5------|-2-4-4-2-4--2-4--| 
|-(2)---0-2--3------|-0-2-2-0-2--0-2--| 
|-------------------|-----------------| 
 
 
  +S  S E Q  Q.   E   E E E E Q  E E   +S  S E Q  Q.   E   E E E E Q  E E 
|-(2)-----2--0------|---2-2---2----2-|-(2)-----2--3------|---2-2---2--2-0-| 
|-(3)-----0--4------|---3-0---3----3-|-(3)-----0--4------|---3-0---3--0-1-| 
|-(4)---2----2------|-2-4---2-4--2-4-|-(4)---2----5------|-2-4---2-4----2-| 
|-(4)---2-4--2------|-2-4-4-2-4--2-4-|-(4)---2-4--5------|-2-4-4-2-4--4-2-| 
|-(2)---0-2--0------|-0-2-2-0-2--0-2-|-(2)---0-2--3------|-0-2-2-0-2--2-0-| 
|-------------------|----------------|-------------------|----------------| 
 
 
  +H     +Q   E S S   H    H      +H.      Q    +H     +E  E E E 
|-(0)----(0)--------|------9----|-(9)------7--|-(7)----(7)-5-3-2--| 
|-(1)----(1)----3-5-|-7---------|-------------|-------------------| 
|-(2)----(2)--------|-----------|-------------|-------------------| 
|-(2)----(2)--------|-----------|-------------|-------------------| 
|-(0)----(0)--------|-----------|-------------|-------------------| 
|-------------------|-----------|-------------|-------------------| 
 
 
  +E  S S E S S E E E E   Q  E S S E S S E S S   E S S E S S E S S E S S 
|-(2)-------------------|----------------------|-------------------------| 
|-----5-3-2-2-----------|----------------------|-------------------------| 
|-------------4-2-4-2-0-|------2-1-------------|-------------------------| 
|-----------------------|-4--------4-5-4-2-4-2-|-0-0---------------------| 
|-----------------------|----------------------|-----4-2-4-2-0-2-0---0---| 
|-----------------------|----------------------|-------------------3---3-| 
 
 
  E S S E E E E S S E   E E E E +Q.   S S 
|---------------------|-------------------| 
|---------------------|-------------------| 
|---------------------|-------------------| 
|-----------------0---|-------------------| 
|---------0---0-4-4-2-|---0-5-4-(4)-------| 
|-2-0-2-3---3---------|-3-------------1-3-| 
 
 
  E E E E E E  E E   +E  E E E +E  E E E 
|------------------|----------------------| 
|------------------|----------------------| 
|------------------|----------------------| 
|------------------|----------------------| 
|-0-1-3-5-7-9-10-9-|-(9)-7-5-7-(7)-5-4-5--| 
|------------------|----------------------| 
 
 
  +E  E E E +E  E E E   +E  E E S S E S S E S S   H    H      W 
|---------------------|-------------------------|-----------|------| 
|---------------------|-------------------------|-----------|------| 
|---------------------|-------------------------|-----------|------| 
|---------------------|-------------------------|-----------|------| 
|-(5)-4-2-4-(4)-2-0-2-|-(2)-3-2-2-0-2-0---0-----|-----------|------| 
|---------------------|-----------------3---3-0-|-2---------|------| 
 
 
  W          W          W          W 
|----------|----------|----------|------| 
|----------|----------|----------|------| 
|----------|----------|----------|------| 
|----------|----------|----------|------| 
|----------|----------|----------|------| 
|----------|----------|----------|------| 
 
 
  W          W          W          W 
|----------|----------|----------|------| 
|----------|----------|----------|------| 
|----------|----------|----------|------| 
|----------|----------|----------|------| 
|----------|----------|----------|------| 
|----------|----------|----------|------| 
 
 
                             Q=182 
  W          H    Q  E S S   +E  E  Q  Q  E E   +Q.   E +Q.   E 
|----------|-------------7-|-(7)----7---------|-------9-(9)---9--| 
|----------|---------------|-----7-10-----7-8-|-(8)--------------| 
|----------|---------------|------------------|------------------| 
|----------|---------------|------------------|------------------| 
|----------|---------------|------------------|------------------| 
|----------|---------------|------------------|------------------| 
 
 
 2/4            4/4 
  +E   S S E E   H    E E +E   E 
|-(9)-10-9-7-5-|-7----7-9-(9)-10-| 
|--------------|-----------------| 
|--------------|-----------------| 
|--------------|-----------------| 
|--------------|-----------------| 
|--------------|-----------------| 
 
 
 6/4                         4/4 
   +E  E E Q  E E E E E E E   S S E +Q   +E  E E E 
|-(10)-9-7-5--7---5---5-----|----------------------| 
|---------------7---5---3-2-|-2-3------------------| 
|---------------------------|---6-4-(4)--(4)-2-----| 
|---------------------------|------------------4-5-| 
|---------------------------|----------------------| 
|---------------------------|----------------------| 
 
 
                   2/4           4/4 
  +Q.   E +Q.   E   +E  S S E E   H    S S S  S  S  S  S  S 
|-----------------|-------------|--------3-7-12-15-19-22----| 
|-------3-(3)---2-|-(2)-2-3-----|------5-----------------24-| 
|-----------------|-------6-4-2-|-4-------------------------| 
|-(5)-------------|-------------|---------------------------| 
|-----------------|-------------|---------------------------| 
|-----------------|-------------|---------------------------| 
 
 
   S  S  S  S  S  S  S  S  S  S  S  S  S  S  S  S 
|----------------19-22----------------------------| 
|-------------20-------24-------------------------| 
|-24-21----21-------------24-21-------------------| 
|-------21----------------------21-------------19-| 
|----------------------------------22-------20----| 
|-------------------------------------24-22-------| 
 
 
   S  S  S  S  S  S  S  S  S  S  S  S  S  S  S  S 
|-------17-20----------------------20-------------| 
|----18-------22----------------22----22----------| 
|-19-------------22----------22----------22-------| 
|-------------------24----24----------------24----| 
|----------------------24----------------------24-| 
|-------------------------------------------------| 
 
 
                                       Q=185 
                                      6/4 
  S S  S  S  S  E  S  S  S  E  +E  E   W              W 
|-1---12-13-19-21----------18-(18)---|--------------|------| 
|---3-------------------20-----------|--------------|------| 
|--------------------21--------------|--------------|------| 
|-----------------23-----------------|--------------|------| 
|------------------------------------|--------------|------| 
|------------------------------------|--------------|------| 
 
 
                           4/4 
  W              W          W 
|--------------|----------|------| 
|--------------|----------|------| 
|--------------|----------|------| 
|--------------|----------|------| 
|--------------|----------|------| 
|--------------|----------|------| 
 
 
  W          W          W          W 
|----------|----------|----------|------| 
|----------|----------|----------|------| 
|----------|----------|----------|------| 
|----------|----------|----------|------| 
|----------|----------|----------|------| 
|----------|----------|----------|------| 
 
 
  W          W          W          W 
|----------|----------|----------|------| 
|----------|----------|----------|------| 
|----------|----------|----------|------| 
|----------|----------|----------|------| 
|----------|----------|----------|------| 
|----------|----------|----------|------| 
 
 
  W          W          W          W 
|----------|----------|----------|------| 
|----------|----------|----------|------| 
|----------|----------|----------|------| 
|----------|----------|----------|------| 
|----------|----------|----------|------| 
|----------|----------|----------|------| 
 
 
  W          W          W          W 
|----------|----------|----------|------| 
|----------|----------|----------|------| 
|----------|----------|----------|------| 
|----------|----------|----------|------| 
|----------|----------|----------|------| 
|----------|----------|----------|------| 
 
 
  W          W          W          W 
|----------|----------|----------|------| 
|----------|----------|----------|------| 
|----------|----------|----------|------| 
|----------|----------|----------|------| 
|----------|----------|----------|------| 
|----------|----------|----------|------| 
 
 
  W          W          W          W 
|----------|----------|----------|------| 
|----------|----------|----------|------| 
|----------|----------|----------|------| 
|----------|----------|----------|------| 
|----------|----------|----------|------| 
|----------|----------|----------|------| 
 
 
  W          W          W          W 
|----------|----------|----------|------| 
|----------|----------|----------|------| 
|----------|----------|----------|------| 
|----------|----------|----------|------| 
|----------|----------|----------|------| 
|----------|----------|----------|------| 
 
 
  W          W          W          W 
|----------|----------|----------|------| 
|----------|----------|----------|------| 
|----------|----------|----------|------| 
|----------|----------|----------|------| 
|----------|----------|----------|------| 
|----------|----------|----------|------| 
 
 
                         Q=182 
            2/4         4/4 
  W          Q  E S  S    +E   E  Q  Q   E  E 
|----------|-----------|----------------------| 
|----------|-----------|----------------------| 
|----------|--------16-|-(16)----16-----------| 
|----------|-----------|------16-19-----16-17-| 
|----------|-----------|----------------------| 
|----------|-----------|----------------------| 
 
 
                       2/4 
   +Q.    E  +Q.    E    +E   S  S  E  E 
|---------------------|------------------| 
|---------------------|------------------| 
|--------18-(18)---18-|-(18)-19-18-16-14-| 
|-(17)----------------|------------------| 
|---------------------|------------------| 
|---------------------|------------------| 
 
 
 4/4                   6/4 
   H     E  E  +E   E    +E   E  E  Q   E  E  E E  E  E  E 
|---------------------|------------------------------------| 
|-12----12-14-(14)-15-|-(15)-14-12-10--12----10---10-------| 
|---------------------|-------------------11----9----------| 
|---------------------|------------------------------12-11-| 
|---------------------|------------------------------------| 
|---------------------|------------------------------------| 
 
 
 4/4 
   S  S  E  +Q    +E   E  E  E    +Q.    E  +Q.    E 
|------------------------------|---------------------| 
|------------------------------|---------------------| 
|------------------------------|---------------------| 
|-11-12------------------------|---------------------| 
|----16-14-(14)--(14)-12-------|--------17-(17)---16-| 
|------------------------14-15-|-(15)----------------| 
 
 
 2/4                4/4 
   +E   S  S  E  E    H     S  S  S  S  S  S  S  S 
|------------------|-------------------15-19-22----| 
|------------------|----------------17----------24-| 
|------------------|-------------16----------------| 
|------------------|----------17-------------------| 
|-(16)-16-17-------|-------19----------------------| 
|---------21-19-17-|-19----------------------------| 
 
 
   S  S  S  S  S  S  S  S  S  S  S  S  S  S  S  S 
|----------------19-22----------------------------| 
|-------------20-------24-------------------------| 
|-24-21----21-------------24-21-------------------| 
|-------21----------------------21-------------19-| 
|----------------------------------22-------20----| 
|-------------------------------------24-22-------| 
 
 
   S  S  S  S  S  S  S  S  S  S  S  S  S  S  S  S 
|-------17-20----------------------20-------------| 
|----18-------22----------------22----22----------| 
|-19-------------22----------22----------22-------| 
|-------------------24----24----------------24----| 
|----------------------24----------------------24-| 
|-------------------------------------------------| 
 
 
                               Q=175 
  S S S S S  S S S S E. +Q     E E E E +E  E Q 
|-1---1-3-7-10-----5-8--(8)--|-------7-(7)-------| 
|---3------------6-----------|-7-5---0-(0)-------| 
|--------------8-------------|-----6---------2---| 
|----------------------------|-------------9-2---| 
|----------------------------|---------------0---| 
|----------------------------|-------------------| 
 
 
 2/4      5/4                  4/4                2/4      4/4 
  +H       E E E E +E  E H      E E E E +E  E Q    +H       E E E E +E  E E E 
|--------|-2-----7-(7)--------|-------7-(7)------|--------|-------7-(7)-------| 
|--------|---5---0-(0)--------|-7-5---0-(0)------|--------|-7-5---0-(0)-------| 
|-(2)----|-----6--------------|-----6------------|--------|-----6-------------| 
|-(2)----|-------------7-9----|-------------9----|--------|-------------9-7-9-| 
|-(0)----|--------------------|---------------9--|-(9)----|-------------------| 
|--------|--------------------|------------------|--------|-------------------| 
 
 
                        3/4         4/4 
  W          H    H      +H     Q    E E E E Q  E E 
|----------|-----------|-----------|----------------| 
|----------|------5----|-(5)-------|---7-7---7----7-| 
|----------|-----------|-----------|---7-----7----7-| 
|----------|-----------|-----------|-7-9-9-7-9--7-9-| 
|-7--------|-----------|-----------|-7-9-9-7-9--7-9-| 
|----------|-----------|-----------|-5-7-7-5-7--5-7-| 
 
 
  +S  S E Q  Q.   E   E E E E Q  E E   +S  S E Q  Q.   E   E E E E E E E E 
|------------3------|---2-2---2----2-|-(2)-----2--0------|---2-2---2-----2-| 
|-(7)-----7--4------|---3-0---3----3-|-(3)-----0--4------|---3-0---3-----3-| 
|-(7)-----4--5------|-2-4---2-4--2-4-|-(4)---2----2------|-2-4---2-4---2-4-| 
|-(9)---7-4--5------|-2-4-4-2-4--2-4-|-(4)---2-4--2------|-2-4-4-2-4-2-2-4-| 
|-(9)---7----3------|-0-2-2-0-2--0-2-|-(2)---0-2--0------|-0-2-2-0-2-0-0-2-| 
|-(7)---5-7---------|----------------|-------------------|-----------------| 
 
 
  +S  S E Q  Q.   E   E E E E E E E E   +W           +H     +S  S E Q 
|-(2)-----2--3------|---2-2---2---2-0-|-(0)--------|-(0)----(0)--------*| 
|-(3)-----0--4------|---3-0---3---0-1-|-(1)--------|-(1)----(1)--------*| 
|-(4)---2----5------|-2-4---2-4-----2-|-(2)--------|-(2)----(2)--------*| 
|-(4)---2-4--5------|-2-4-4-2-4-2-4-2-|-(2)--------|-(2)----(2)--------*| 
|-(2)---0-2--3------|-0-2-2-0-2-0-2-0-|-(0)--------|-(0)----(0)--------*| 
|-------------------|-----------------|------------|-------------- 
 

	  

No existe una video leccione para esta canción

request
Aumentar uno tonoAumentar uno tono
Aumentar uno semi-tonoAumentar uno semi-tono
Disminuir uno semi-tonoDisminuir uno semi-tono
Disminuir uno tonoDisminuir uno semi-tono
LosAcordes
Buscar
auto avanzar rasgueos aumentar disminuir cambiar color esconder acordes gráficos
losacordes exhibir acordes losacordes youTube video losacordes ocultar tabs losacordes ir hacia arriba losacordes