Marcos Pavan

Início > Marcos Pav... > acordes

A vida sem Deus Tablatura

Marcos Pavan

Dificultad:Ningún gradoNingún grado

reynalty

tuner correct add songbook print version text version salvar en e-mail
acordesukuleletablaturabajobateríaarmónicaflautacavacopiano Guitar Pro
acordes

A vida sem Deus

	  Introdução: 
E -----------------------------------------12-12---------------------------------------- 
B –12/14-12-14/15-14-12----12/14-12-14/15--------15-14-12------15b15-13-15-13-12-10~~~~- 
G ----------------------14---------------------------------14--------------------------- 
D -------------------------------------------------------------------------------------- 
A -------------------------------------------------------------------------------------- 
E -------------------------------------------------------------------------------------- 

Solo do meio: 

E –15/17-17—-15/17-17-17-20-17-17-17-15----------------------------------------------------------------- 
B ---------------------------------------17-15/13---------------------------------15b15-13-15-13-12-10~~ 
G -------------------------------------------------14-12----------------------14------------------------ 
D --------------------------------------------------------14/12-10-------------------------------------- 
A ------------------------------------------------------------------12-10-12---------------------------- 
E ------------------------------------------------------------------------------------------------------ 
	  

No existe una video leccione para esta canción

request
LosAcordes
Buscar
auto avanzar rasgueos aumentar disminuir cambiar color esconder acordes gráficos
losacordes exhibir acordes losacordes youTube video losacordes ocultar tabs losacordes ir hacia arriba losacordes