Maná

Início > Maná > acordes

Cuando los Angeles Lloran Tablatura

Maná

Dificultad:IntermedioIntermedio

mayatatu

tuner correct add songbook print version text version salvar en e-mail
acordesukuleletablaturabajobateríaarmónicaflautacavacopiano Guitar Pro
acordes

Cuando los Angeles Lloran

Áño: 1995 - Álbum: MTV Unplugged

	  e|----2------2-0--------3-----3----------2------2-0-------3------3--------------------------------- 
B|----3----3-----3--0---3---3---0-3-2----3----3-----3-0---3----3---0-3--2^0^2---------------------- 
G|----2--2------------2-0--0----------2--2--2----------2--0--0------------------------------------- 
D|----0-----------------2----------------0----------------2---------------------------------------- 
A|--------------------------------0----------------------------------0----------------------------- 
E|---------------3----2-----------------------------3--2------------------------------------------- 

e|---2---5-3-2^0------------0-----2-0----------------------------0-2-3^2^0--------------- 
B|---3-----------3---2----2----3------3^2^0---0------0------0--------------3--3---2^3^2-- 
G|---2---------------2--2------4------------2------0---2--0------------------------------  2X 
D|---0---------------2---------4-----------------0--------------------------------------- 
A|-------------------0---------2----------------------------------------------0---------- 
E|--------------------------------------------3--------2--0------------------------------ 

e|-----------0-2-3-5-----2^0---------------------------------------- 
B|-----0-2-3----------3-------3--2------3-2^3----------------------- 
G|---2--------------------------------4----------------------------- 
D|-----------------0----------------4------------------------------- 
A|-----------------------2------------------------------------------ 
E|--------------------3----------2---------------------------------- 


Legenda: ^= hammer on 
	  

No existe una video leccione para esta canción

request
LosAcordes
Buscar
auto avanzar rasgueos aumentar disminuir cambiar color esconder acordes gráficos
losacordes exhibir acordes losacordes youTube video losacordes ocultar tabs losacordes ir hacia arriba losacordes