Maná

Início > Maná > acordes

Con Pinta De Una Diva Tablatura

Maná

Dificultad:Ningún gradoNingún grado

Ivanei

tuner correct add songbook print version text version salvar en e-mail
acordesukuleletablaturabajobateríaarmónicaflautacavacopiano Guitar Pro
acordes

Con Pinta De Una Diva

	  INTRO: 
 
(riff 1) 
e-----------------------------------------------------  
B-----------------------------------------------------  
G----4-5--------2-----2----5-5--4-4-4-----------------   
D--2----------5-----------------------0--------------- 
A--------3-3-------5----5-----------------------------  
E-----------------------------------------------------  
 
Dale niña! 
 
(riff 2) 
e-----------------------------------------------------  
B-----------------------------------------------------  
G----4-5--------2-----2----4-4------------------------  
D--2----------5----------------4-5-4------------------  
A--------3-3-------5----5-----------------------------  
E-----------------------------------------------------  
 
¡uh! 
 
(riff 1) 
e-----------------------------------------------------  
B-----------------------------------------------------  
G----4-5--------2-----2----5-5--4-4-4-----------------   
D--2----------5-----------------------0--------------- 
A--------3-3-------5----5-----------------------------  
E-----------------------------------------------------  
 
(riff 3) 
e-----------------------------------------------------  
B-----------------------------------------------------  
G----4-5--------2-------2-----------------------------   
D--2----------5--------------------------------------- 
A--------3-3-------5----------5--5--5----------------- 
E-----------------------------------------------------  
 
Ay mujer, que buena tu te ves 
tu forma me alucina... 
------------------------------------------------------ 
 
Ref: 
 
e-------3--------7--------5---------3-----------------  
B--1--5-----5--8------2-5------1--5-------------------  
G-----------------------------------------------------   
D----------------------------------------------------- 
A-----------------------------------------------------  
E----------------------------------------------------- 
                                                          
e-----------------------------------------------------  
B--5--8--5--3--7--3----------------------------------- 
G-----------------------------------------------------   
D-----------------------------------------------------  
A-----------------------------------------------------  
E-----------------------------------------------------  
 
e-------3--------7--------5---------3-----------------  
B--1--5-----5--8------2-5------1--5-------------------  
G-----------------------------------------------------   
D----------------------------------------------------- 
A-----------------------------------------------------  
E----------------------------------------------------- 
 
e--------7------------5-------------------------------  
B--5--8---------3--6----------------------------------   
G-----------------------------------------------------   
D-----------------------------------------------------   
A-----------------------------------------------------  
E----------------------------------------------------- 
tu tienes lo que quiero 
me prendes como el fuego... 
------------------------------------------------------ 
(riff 3)  
 
------------------------------------------------------ 
SOLO: 
 
¡ajá uh! 
e----------------------------------------------------- 
B------3--5-----3--1----1-1-2-----1------------------- 
G--4-4-------4--------0--------2-----4-4-----4--3-3-3- 
D-----------------------------------------4----------- 
A-----------------------------------------------------  
E----------------------------------------------------- 
 
e----------------------------------------------------- 
B----------------------3--------5--3----4-5-----------  
G--0--0--------------------2--4-------2---------------   
D-------4--4--2--2------------------------------------   
A-----------------------------------------------------  
E----------------------------------------------------- 
 
e----------------------------------------------------- 
B-----------------------------------------------------  
G--0--2--4-5-4-5-4-2-*5s7--5-4-2-4--------------------  
D-----------------------------------------------------  
A-----------------------------------------------------  
E----------------------------------------------------- 
 
e----------------------------------------------------- 
B------3-5------3-5-5--------3-5--8-8-7-7-5-5-3-3-0-1- 
G--4-4------4-4----------4-4--------------------------   
D-----------------------------------------------------   
A-----------------------------------------------------  
E----------------------------------------------------- 
 
quiero probar tu amor 
quiero comerte a besos 
 
tu eres para mi  
un sueño tan perfecto 
 
contigo pa' changuear  
rumbeando sin parar 
te quiero para mi oh yeah 
gozando hasta el amanecer 
 
(riff 1) 
 
 
e-----------------------------------------------------  
B---------------------1--0---------------------------- 
G----4-5--------2----------2--0-0--4--4--------------- 
D--2----------5--------------------------4------------ 
A--------3-3-------5---------------------------------- 
E----------------------------------------------------- 
 
(riff 2) 
Tu tienes lo que quiero... 
 
 
 
 
 
=================================== 
Ivanei Nunes - [email protected] 
=================================== 

	  

No existe una video leccione para esta canción

request
LosAcordes
Buscar
auto avanzar rasgueos aumentar disminuir cambiar color esconder acordes gráficos
losacordes exhibir acordes losacordes youTube video losacordes ocultar tabs losacordes ir hacia arriba losacordes