Maná

Início > Maná > acordes

Como Dueles En Los Labios Tablatura

Maná

Dificultad:IntermedioIntermedio

europeu

tuner correct add songbook print version text version salvar en e-mail
acordesukuleletablaturabajobateríaarmónicaflautacavacopiano Guitar Pro
acordes

Como Dueles En Los Labios

Áño: 1997 - Álbum: Luna

	  |-------------0---|-----------------| 
|-3---3---3-------|-3---3---3---1p0-| 
|---0---0---0---0-|---2---2---2-----| 
|-----------------|-----------------| 
|-----------------|-----------------| 
|-3---------------|-2---------------| 
 
Flute: 
|-------12----|-----------|------------|--------------|-----| 
|-15-------15-|------13---|-12---------|-13-12--------|-----| 
|-------------|---14------|---------14-|-------14--11-|-12--| 
|-------------|-----------|------------|--------------|-----| 
|-------------|-----------|------------|--------------|-----| 
|-------------|-----------|------------|--------------|-----| 
 
Verse 1 & 2: 
 
|-------------0---|-----------------| 
|-3---3---3-------|-3---3---0---1---| 
|---0---0---0---0-|---2---2---2---2-| 
|-----------------|-----------------| 
|-----------------|-----------------| 
|-3---------------|-2---------------| 
 
|-------------0---|-----------------| 
|-3---3---3-------|-3---3---3---1---| 
|---0---0---0---0-|---2---2---2---2-| 
|-----------------|-----------------| 
|-----------------|-----------------| 
|-3---------------|-2---------------| 
 
|-----------------|-----------------| 
|-0---0---1---3---|-3---3---1---1---| 
|---0---0---0---0-|---2---2---2---2-| 
|-----------------|---------1-------| 
|-----------------|-----------------| 
|-3---------------|-2---------------| 
 
1.___________________________________ 
|-----------------|-----------------| 
|-0---0---0---0---|-0---0---3---3---| 
|---0---0---0---0-|---0---0---2---2-| 
|-----------------|-----------------| 
|-----------------|-----------------| 
|-0---------------|-0-------2-------| 
 
2.___________________________________ 
|-----------------|-----------------| 
|-0---0---0---0---|-0---0---1---3---| 
|---0---0---0---0-|---0---0---0---0-| 
|-----------------|---------2-------| 
|-----------------|-------------2---| 
|-0---------------|-0---------------| 
 
Verse 3 & 4: 
 
|-----------------|---------0---1---| 
|-1---1---1---1---|-3---3-----------| 
|---0---0---0---0-|---0---0---0---0-| 
|-----------------|-----------------| 
|-3---------------|-----------------| 
|-----------------|-3---------------| 
 
|-----------------|---------3---1---| 
|-1---1---1---1---|-3---3-----------| 
|---0---0---0---0-|---0---0---0---0-| 
|-----------------|-----------------| 
|-3---------------|-----------------| 
|-----------------|-3---------------| 
 
|-0---0---0---3---|-3---------------| 
|---1---1---1---1-|-----0---0---0---| 
|-----------------|---0---0---1---1-| 
|-----------------|-----------------| 
|-3---------------|-----------------| 
|-----------------|-3-------4-------| 
 
1.___________________________________ 
|-----------------|-----------------| 
|-1---1---1---1---|-1---1---3---3---| 
|---2---2---2---2-|---2---2---0---0-| 
|-----------------|-----------------| 
|-0---------------|-0-------2-------| 
|-----------------|-----------------| 
 
2.____ 
Chorus: 
 
Como dueles, en los labios, en todos lados, soledad... 
 
|-----------------|-----------------| 
|-1---1---1---1---|-1---1---1---1---| 
|---2---2---2---2-|---2---2---2---2-| 
|-----------------|-----------------| 
|-0---------------|-----------------| 
|-----------------|-3---------------| 
 
|-----------------|-----------------|-----------------| 
|-1---1---1---1---|-1---1---1---1---|-3---3---3---3---| 
|---2---2---2---2-|---2---2---2---2-|---0---0---0---0-| 
|-----------------|-----------------|-----------------| 
|-----------------|-----------------|-----------------| 
|-2---------------|-1---------------|-3---------------| 
 
Solo flute: gtr repeats verse 4 
Note: I keep the bass note in each beat 
      to give something to follow. 
 
|-------------15--|-----------------| 
|-13--------------|-15---------12---| 
|-----------------|-----------------| 
|-----------------|-----------------| 
|-3---------------|-2---------------| 
|-----------------|-----------------| 
 
|----------15-17--|-----------------| 
|-13--------------|-15----------12--| 
|-----------------|-----------------| 
|-----------------|-----------------| 
|-3---------------|-2---------------| 
|-----------------|-----------------| 
 
                                      Chorus... 
|-------------15--|---------16---17-|------| 
|-13--------------|-15--------15----|------| 
|-----------------|-----------------|-14---| 
|-----------------|-----------------|------| 
|-3---------------|-----------------|------| 
|-----------------|-3-------4-------|------| 
 
 
Repeat Chorus 
 
and then the outro: 
                   here is an 2/4 beat 
|-----------------|----------| 
|-1---1---1---1---|-1---3----| 
|---0---0---0---0-|---0---0--| 
|-----------------|----------| 
|-3---------------|-3---2----| 
|-----------------|----------| 
 
 
||------------------|-----------------|-------------0---| 
||--1---1---1---1---|-1---1---3---3---|-0---0---3-------| 
||º---2---2---2---2-|---2---2---2---2-|---1---1---1---1-| 
||º-----------------|---------0-------|-----------------| 
||--0---------------|-----------------|-----------------| 
||----------3-------|-2---------------|-0---------------| 
 
|-----------------|-----------------|---------0--------|| 
|-1---1---1---1---|-1---1---3---3---|-0---0-------3----|| 
|---2---2---2---2-|---2---2---2---2-|---1---1---1---1-º|| 
|-----------------|---------0-------|-----------------º|| 
|-0---------------|-----------------|------------------|| 
|---------3-------|-2---------------|-0----------------|| 
 
then repeat this many times and fade out 
 
|-----------------|-----------------|---------2-------| 
|-3---3---3---3---|-3---3---3---3---|-2---2-------2---| 
|---4---4---4---4-|---4---4---4---4-|---3---3---3---3-| 
|-----------------|-----------------|-----------------| 
|-2-------0-------|-----------------|-----------------| 
|-----------------|-3-------0-------|-2---------------| 

	  

No existe una video leccione para esta canción

request
LosAcordes
Buscar
auto avanzar rasgueos aumentar disminuir cambiar color esconder acordes gráficos
losacordes exhibir acordes losacordes youTube video losacordes ocultar tabs losacordes ir hacia arriba losacordes