Los Apson

Início > Los Apson > acordes

Se Me Sebo Tablatura

Los Apson

Dificultad:Ningún gradoNingún grado

leanjunior

tuner correct add songbook print version text version salvar en e-mail
acordesukuleletablaturabajobateríaarmónicaflautacavacopiano Guitar Pro
acordes

Se Me Sebo

	                       Se me sebo.                   
                     Los apson                     
                                                   
                                                   
                                                   
      Intro.                                       
   Riff 1,Riff 2,Riff 1*2,Riff 2*2,Riff 1*2,Riff 4 
                                                   
           Riff 1                                  
  Se me sebo                                       
  Riff 2            Riff 1*2                       
  igual que un estornudo                           
          Riff 2*2                                 
  se me sebo                                       
                    Riff 1*2                       
  lo siento no se pudo                             
                                                   
                                                   
       Riff 3                                      
  La chica se escapo                               
                 Bajo,Riff 1,Riff 4                
  Ah Ah Ah Ah Se me sebo                           
                                                   
                                                   
          Riff 1                                   
  Se me sebo                                       
  Riff 2            Riff 1*2                       
  igual que un estornudo                           
          Riff 2*2                                 
  se me sebo                                       
                       Riff 1*2                    
  con esto un poco rudo                            
                                                   
                                                   
      Riff 3                                       
  Mi táctica fallo Ah                              
                 Bajo,Riff 1,Riff 4                
  Ah Ah Ah Ah se me sebo                           
                                                   
  Nada                                             
  Entra solo.                                      
                                          *3                         *2  
  e|-10-10-10--10-10-10--10-10-10--10-10-10-|--15-----|--15------------| 
  b|-10-10-10--12-12-12--13-13-13--12-12-12-|-----15b-|-----15b-13v-10-| 
  g|----------------------------------------|---------|----------------| 
  d|----------------------------------------|---------|----------------| 
  a|----------------------------------------|---------|----------------| 
  E|----------------------------------------|---------|----------------| 
                                                                           
  e|--17----17b-15-|--15h17-17-15h17-----|--15-18v-17v-|--15h17-18-15-15-| 
  b|-----17--------|-----------------17b-|-------------|-----------------| 
  g|---------------|---------------------|-------------|-----------------| 
  d|---------------|---------------------|-------------|-----------------| 
  a|---------------|---------------------|-------------|-----------------| 
  E|---------------|---------------------|-------------|-----------------| 
                                           Riff 4  
  e|--15h17-17-15h17-17-|--15h17-17-15----|        
  b|--------------------|--------------17-|        
  g|--------------------|-----------------|        
  d|--------------------|-----------------|        
  a|--------------------|-----------------|        
  E|--------------------|-----------------|        
                                                   
           Riff 1                                  
  Se me sebo                                       
  Riff 2            Riff 1*2                       
  igual que un estornudo                           
          Riff 2*2                                 
  se me sebo                                       
                    Riff 1*2                       
  lo siento no se pudo                             
                                                   
                                                   
       Riff 3                                      
  La chica se escapo                               
                 Bajo,Riff 1,Riff 4                
  Ah Ah Ah Ah Se me sebo                           
                                                   
  Nada                                             
     Solo Outro.                           *3                        *2  
  e|--10-10-10--10-10-10--10-10-10--10-10-10-|--15-----|--15-----------| 
  b|--10-10-10--12-12-12--13-13-13--12-12-12-|-----15b-|-----15-13v-10-| 
  g|-----------------------------------------|---------|---------------| 
  d|-----------------------------------------|---------|---------------| 
  a|-----------------------------------------|---------|---------------| 
  E|-----------------------------------------|---------|---------------| 
                                                                   
  e|--13h15-17b-17b-17b-17b-17b-17b-17b-|-17-15----13-15---------| 
  b|------------------------------------|-------17-------17b-17b-| 
  g|------------------------------------|------------------------| 
  d|------------------------------------|------------------------| 
  a|------------------------------------|------------------------| 
  E|------------------------------------|------------------------| 
                                                                   
                                                   
          Explicación.                             
      Riff 1	                                   
     D                                             
  e|---------------------------|                   
  b|---------------------------|                   
  g|---------------------------|                   
  d|--7-7--9-9--10-10--9-7-9---|                   
  a|--5-5--5-5---5--5--5-5-5---|                   
  E|---------------------------|                   
                                                   
      Riff 2                                       
     G                                             
  e|---------------------------|                   
  b|---------------------------|                   
  g|--7-7--9-9--10-10--9-7-9---|                   
  d|--5-5--5-5---5--5--5-5-5---|                   
  a|---------------------------|                   
  E|---------------------------|                   
                                                   
      Riff 3                                       
     A                                             
  e|------------------------------|                
  b|------------------------------|                
  g|--9-9--11-11--12-12--11-9-11--|                
  d|--7-7---7--7---7--7---7-7--7--|                
  a|------------------------------|                
  E|------------------------------|                
                                                   
      Bajo    Riff 4                               
  e|-------|--3--4--5-------------|                
  b|-------|--3--4--5-------------|                
  g|-------|--4--5--6-------------|                
  d|-------|--5--6--7-------------|                
  a|-------|--5--6--7-------------|                
  E|-14s5--|--3--4--5--14S5-------|
	  

No existe una video leccione para esta canción

request
Aumentar uno tonoAumentar uno tono
Aumentar uno semi-tonoAumentar uno semi-tono
Disminuir uno semi-tonoDisminuir uno semi-tono
Disminuir uno tonoDisminuir uno semi-tono
LosAcordes
Buscar
auto avanzar rasgueos aumentar disminuir cambiar color esconder acordes gráficos
losacordes exhibir acordes losacordes youTube video losacordes ocultar tabs losacordes ir hacia arriba losacordes