Libido

Início > Libido > acordes

Sin Rencor Tablatura

Libido

Dificultad:FácilFácil

joce4578

tuner correct add songbook print version text version salvar en e-mail
acordesukuleletablaturabajobateríaarmónicaflautacavacopiano Guitar Pro
acordes

Sin Rencor

	  ÉSTOS SON LOS ACORDES USADOS 
 
        C#m     A      E     A* 
     e| -4-    -0-    -0-   -5- 
     b| -5-    -2-    -0-   -5- 
     g| -6-    -2-    -1-   -6- 
     D| -6-    -2-    -2-   -7- 
     A| -4-    -0-    -2-   -7- 
     E| -x-    -x-    -0-   -x- 
 
 
INTRO 
 
       C#m                    A              E       E 
     e|-12-12-12-11-11-11-9-9-7-7-7-5-5-5-3-1---- 
     b|------------------------------------------ 
     g|------------------------------------------ 
 
       C#m                    A              E       E 
 
 
 
 
C#m      A            E         E 
 Puedes ver que en tu interior 
         C#m            A           E  E 
La frialdad de este encuentro termino 
           C#m               A                    E           E 
Y quieres ser feliz como un ave al viento en tu corazón sonriéndonos 
          C#m       A            E    E 
No puedes verme bien  sin un rencor 
 
 
     e|------------------------- 
     b|----5-4------------------ 
     g|--------4----4/6-4------- 
     D|----------6-------------- 
     A|------------------------- 
     E|------------------------- 
 
        C#m       A*              E     E 
Tras mirar, recordar después del dolor 
      C#m           A*         E       E 
Me olvidarás no lo dudes te aliviaras 
           C#m              A*                    E           E 
Y quieres ser feliz como un ave al viento en tu corazón sonriéndonos 
          C#m       A*            E    E 
No puedes verme bien  sin un rencor 
          C#m              A*                   E           E 
Y quieres ser feliz compensar al tiempo en tu corazón sonriéndonos 
          C#m        A*              E         E 
No puedes verte bien (**) si abres los ojos 
          C#m        A*           E         E 
No puedes verme bien  sin un rencor 
 
(**): 
     e|---------------9-9--------- 
     b|-----------9-9------------- 
     g|-------9-9----------------- 
     D|-11-11--------------------- 
     A|--------------------------- 
     E|--------------------------- 
 
 
SOLO: 
 
     e|-------------------------5--5-4--- 
     b|--5-4------5-4---------5--------5~ 
     g|------4--------------------------- 
     D|--------6------4--4/6------------- 
     A|---------------------------------- 
     E|---------------------------------- 
                          Tras mirar, recordar.. 
     e|----------------------4----------- 
     b|-----5---------5-4----5----------- 
     g|4-6---6--4--------4---6----------- 
     D|---------------------------------- 
     A|---------------------------------- 
     E|---------------------------------- 
 
 
 
 
        C#m       A*               E      E 
Tras mirar, recordar después del dolor 
       C#m           A*         E         E 
Me olvidaras, no lo dudes te aliviaras 
           C#m              A*                    E             E 
y quieres ser feliz comm un ave al viento en tu corazón sonriéndonos 
          C#m        A*              E     E 
No puedes verte bien  si abres los ojos 
          C#m        A*           E 
No puedes verme bien  sin un rencor 
 
 
 C#5(C#m)     A5(A)            E5(E)       G#5(E) 
 
e|------4-------------5--------------0---------------4----4-----4----- 
b|--5-----5-------5-----5--------0-----0---------4-----4-----4-----4--- 
g|----6-----6-------6-----6--------1-----1---------4-----4-----4-----4- 
D|--------------------------------------------------------------------- 
A|--------------------------------------------------------------------- 
E|--------------------------------------------------------------------- 
 
 
 
C#5              A5 
 Sé como este viaje sé, 
                E5 
Siente como antes 
          G#5 
Siéntete sola al verme 
C#5             A5 
 Como puedo ser perfecto 
E5                F#5 
 Solo espero que hoy me entiendas 
 
C#m           A*             E                E 
 Pobre corazón abierto en mi interior destruyéndonos 
          C#m        A*           E 
No puedes verme bien  sin un rencor 
          C#m        A*           E 
No puedes verme bien  sin un rencor 
    (****)C#m        A           E 
No puedes verme bien  sin un rencor 
    (****)C#m        A           E 
No puedes verme bien  sin un rencor 
    (***) C#m        A           E 
No puedes verme bien  sin un rencor 
 
(****) 
     e|-12-12-12-11-11-11-9-9-7-7-7-5-5-5-3-1---- 
     b|------------------------------------------ 
     g|------------------------------------------ 
 
(***) 
     e|-12-12-12-11-11-11-11-11-12-12-12-7-7-7-5-4-- 
     b|--------------------------------------------- 
     g|--------------------------------------------- 
 

	  

No existe una video leccione para esta canción

request
LosAcordes
Buscar
auto avanzar rasgueos aumentar disminuir cambiar color esconder acordes gráficos
losacordes exhibir acordes losacordes youTube video losacordes ocultar tabs losacordes ir hacia arriba losacordes